Juan Dela Cruz Band - Laki Sa Layaw Chords & Tabs

 

Laki Sa Layaw Chords & Tabs

Juan Dela Cruz Band Chords & Tabs

Version: 1 Type: Tab 0 ratings
1 star 2 stars 3 stars 4 stars 5 stars
comments

Laki Sa Layaw Tab

Tabbed by:aya nadonga.
Solo by:mike hanopol of juan dela cruz
-----------------------------------------------juan delacruz--------------------------------------
^   -   pull up
s   -   slide
h  -   hammer on


laki sa layaw {solo}
e-------------------------------------------------------------------------------------|
b--12^----12----------------------------------------------------------7--8--7--8--10--|
g----------------11h13--9--11--9--11-----------------6-7-6-7-9------------------------|
d--------------------------------------------------9-7-9------------------------------|
a-------------------------------------------------------------------------------------|
e-------------------------------------------------------------------------------------|
[ Tab from: http://www.guitartabs.cc/tabs/j/juan_dela_cruz_band/laki_sa_layaw_tab.html ]
e----------------------------------------------------------------------------|
b--8--7--8--10--8---------------------15--15h17------------------------------|
g--------------------9---------14s16------------------16-14-12-14 14^-12-14--|
d----------------------------------------------------------------------------|
a----------------------------------------------------------------------------|
e----------------------------------------------------------------------------|

e--10-7----7-10-----12--9----9--12------------------18^-18^-18^--|
b--------8-------------------10----------------------------------|
g----------------------------------------------------------------|
d----------------------------------------------------------------|
a----------------------------------------------------------------|
e----------------------------------------------------------------|


intinndihin nyo nlang mga repakuls!!!1st tym ko ksi eh! Pro cgurado ko 100% na tama yan!!!
Tyming lang mga tsong!
Ad me up for any comments!

Kirk_aya_metallica@yahoo.com sa ym yan!
Comments