Jua Music - Death Showers Chords & Tabs

 

Death Showers Chords & Tabs

Jua Music Chords & Tabs

Version: 1 Type: Tab 0 ratings
1 star 2 stars 3 stars 4 stars 5 stars
comments

Death Showers Tab

   
Death Showers

Dropped D
Intro/Verse
|------------------------------------------------|
|------------------------------------------------|
|------------------------------------------------|
|---------12---------10--------7---------5-------|
|---12h13----13---12----12---8---8---7h9---7(9)--|
|-0-------------0----------0-------0-------------|
Hammer 13 only on repeats              end on 9 before pre-chorus    

Pre-chorus
|------------------------------|
|------------------------------|
|------------------------------|
|-8----------7---------5-------|
|-8-x8-----8---8---7h9---7(9)--|
|-8------0-------0-------------|
 p.m.                end with 9  

Chorus
|----------------|
|----------------|
|-11-----14--12--|
|-11--8--14--12--|
|--9--9--12--13--|
|----------------|
[ Tab from: http://www.guitartabs.cc/tabs/j/jua_music/death_showers_tab.html ]
Bridge
|--------------------------------------------------|
|--------------------------------------------------|
|--------------------------------------------------|
|------0---------0-----------12------------10------|
|---12---12---12---12---12h13---13---10h12----12---|
|-0---------0---------0------------0---------------|

|--------------------------------------------|
|--------------------------------------------|
|--------------------------------------------|
|-------0----------0----------7---------7----|
|----10---10----10---10---7h8---8---7h8---8--|
|-10---------10---------0---------0----------|

Outro
|----------------------------------------------------------|
|----------------------------------------------------------|
|----------------------------------------------------------|
|------12-----10-------7------5-----4-----2-------0----0---|
|---13---13-12--12---8---8-7h9-7--5--53---3---1---1--1---|
|-0--------0-------0------0------0-----0------0------0-0---|
Comments