Joydrop - American Dreamgirl Chords & Tabs

 

American Dreamgirl Chords & Tabs

Joydrop Chords & Tabs

Version: 1 Type: Tab 0 ratings
1 star 2 stars 3 stars 4 stars 5 stars
comments

American Dreamgirl Tab

Author/Artist: JOYDROP
Title: American Dreamgirl
Transcribed by: keogh1977
Email: keogh1977@hotmail.com

Standard tuning EADGBE
Use Capo on first fret

-----2---0-2---------2-------------|-2-2-2--2-2--5-5-|-2--2----5--5----7--7---
-------------3-2-----------2-0h2-2-|-2-2-2--3-3--5-5-|-2--2----7--7----7--7---
---3---------------3---3-5---------|-3-3-3--2-2--6-6-|-3--3----7--7----8--8---
-4-----4---------4-----------------|-4------0-0--7-7-|-4--4----7--7----9--9---
-----------------------------------|-4-----------7-7-|-4--4----5--5----9--9---
-----------------------------------|-2-----------5-5-|-2--2------------7--7---
 clean tone 2x                       verse 8x          distorsion 2x          

-7--7-|---2---2---2---------2---2---2-------|-2--2----5--5----7--7----7--7--|-
-7--7-|-2---2---5---3-2h3-2---2---5---3-2h3-|-2--2----7--7----7--7----7--7--|-
-8--8-|-------------------------------------|-3--3----7--7----8--8----8--8--|-
-9--9-|-------------------------------------|-4--4----7--7----9--9----9--9--|-
-9--9-|-------------------------------------|-4--4----5--5----9--9----9--9--|-
-7--7-|-------------------------------------|-2--2------------7--7----7--7--|-
        clean tone 3 x                        distorsion 2x                   

-2------5------9--9--|---5-5-5-5-5-5-5---7-7-7-7-7-7-7-7--|-2------5----9--9--
-2------5------9--9--|---5-5-5-5-5-5-5---7-7-7-7-7-7-7-7--|-2------5----9--9--
-3------6------9--9--|---6-6-6-6-6-6-6---8-8-8-8-8-8-8-8--|-3------6----9--9--
-4------7------11-11-|---7-7-7-7-7-7-7---9-9-9-9-9-9-9-9--|-4------7----11-11-
-4------7------11-11-|---7-7-7-7-7-7-7---9-9-9-9-9-9-9-9--|-4------7----11-11-
-2------5------9--9--|---5-5-5-5-5-5-5---7-7-7-7-7-7-7-7--|-2------5----9--9--
 chorus riff1 x2         chorus riff2                                               

-5-5-5-5-5-5-5---7-7-7-7-7-7-7-7-7-7-7-7-7-7-7-7-7-7---5--|-2---4-2---2-----|-
-5-5-5-5-5-5-5---7-7-7-7-7-7-7-7-7-7-7-7-7-7-7-7-7-7---5--|---2-----5---3-2-|-
-6-6-6-6-6-6-6---8-8-8-8-8-8-8-8-8-8-8-8-8-8-8-8-8-8---6--|-----------------|-
-7-7-7-7-7-7-7---9-9-9-9-9-9-9-9-9-9-9-9-9-9-9-9-9-9---7--|-----------------|-
-7-7-7-7-7-7-7---9-9-9-9-9-9-9-9-9-9-9-9-9-9-9-9-9-9---7--|-----------------|-
-5-5-5-5-5-5-5---7-7-7-7-7-7-7-7-7-7-7-7-7-7-7-7-7-7---5--|-----------------|-
                                                            clean tone 6x     
[ Tab from: http://www.guitartabs.cc/tabs/j/joydrop/american_dreamgirl_tab.html ]
--------------------|-2-2---------5-5--------7-7--------------2-2----------5--
--------------------|-2-2---------7-7--------7-7--------------2-2----------7--
--------------------|-3-3---------7-7--------8-8--------------3-3----------7--
--------------------|-4-4---------7-7--------9-9--------------4-4----------7--
--------------------|-4-4-1h2-1--/5-5-4h5-4--9-9-6h7-6-6h7-6--4-4-1h2-1---/5--
--------------------|-2-2--------------------7-7--------------2-2-------------
 piano & drums only   distorsion                                              

-5------7-7-|-2------5------9--9--|---5-5-5-5-5-5-5---7-7-7-7-7-7-7-7-|
-7------7-7-|-2------5------9--9--|---5-5-5-5-5-5-5---7-7-7-7-7-7-7-7-|
-7------8-8-|-3------6------9--9--|---6-6-6-6-6-6-6---8-8-8-8-8-8-8-8-|
-7------9-9-|-4------7------11-11-|---7-7-7-7-7-7-7---9-9-9-9-9-9-9-9-|
-5-4h5--9-9-|-4------7------11-11-|---7-7-7-7-7-7-7---9-9-9-9-9-9-9-9-|
--------7-7-|-2------5------9--9--|---5-5-5-5-5-5-5---7-7-7-7-7-7-7-7-|
              chorus riff1 x2         chorus riff2                                             

                                                           
--2------5----9--9---5-5-5-5-5-5-5---7-7-7-7-7-7-7-7-7-7-7-7-7-7-7-7-7-7---5--|
--2------5----9--9---5-5-5-5-5-5-5---7-7-7-7-7-7-7-7-7-7-7-7-7-7-7-7-7-7---5--|
--3------6----9--9---6-6-6-6-6-6-6---8-8-8-8-8-8-8-8-8-8-8-8-8-8-8-8-8-8---6--|
--4------7----11-11--7-7-7-7-7-7-7---9-9-9-9-9-9-9-9-9-9-9-9-9-9-9-9-9-9---7--|
--4------7----11-11--7-7-7-7-7-7-7---9-9-9-9-9-9-9-9-9-9-9-9-9-9-9-9-9-9---7--|
--2------5----9--9---5-5-5-5-5-5-5---7-7-7-7-7-7-7-7-7-7-7-7-7-7-7-7-7-7---5--|
                                                          


-5----------4----------3----------2--|----------------------------------------
-5----------4----------3----------2--|----------------------------------------
-6----------5----------4----------3--|----------------------------------------
-7----------6----------5----------4--|----------------------------------------
-7----------6----------5----------4--|----------------------------------------
-5----------4----------3----------2--|----------------------------------------
Guitar1 outro 7x                              

---------------------------------|--------------------------------------------
---------------------------------|--------------------------------------------
-------11------11------11------9-|--------------------------------------------
--11-9----11-9----11-9----11-9---|--------------------------------------------
---------------------------------|--------------------------------------------
---------------------------------|--------------------------------------------
Guitar 2 repeat during outro (wah wah)               piano only                             
                                 

Comments