Joy Division - Transmission Chords & Tabs

 

Transmission Chords & Tabs

Joy Division Chords & Tabs

Version: 2 Type: Bass Tab 0 ratings
1 star 2 stars 3 stars 4 stars 5 stars
comments

Transmission Bass Tab

   
"Transmission" by Joy Division (from the album "Substance")
===========================================================

transcribed by Gilles Velay

Any comments, corrections or suggestions ?
Please email me at gvelay@club-internet.fr

Notation :
	w : whole         . : short note
	h : half          \ : slide down
	q : quarter       / : slide up
	e : 8th           h : hammer on


Riff 0
======
     q   e e e e e e   e e e e e e q     q   e e e e e e   e e e e e e q  
G-||-----------------|-----------------|-----------------|-----------------|
D-||-----------------|-----------------|-----------------|-----------------|
A-||-5-5-5-5-5-5-5-5-|-5-5-5-5-5-5-0---|-3---3-3-3-3-3-3-|-3-3-3-3-3-3-0---|
E-||-.-.-.-.-.-.-.-.-|-.-.-.-.-.-.-----|-----.-.-.-.-.-.-|-.-.-.-.-.-.-----|
[ Tab from: http://www.guitartabs.cc/tabs/j/joy_division/transmission_btab_ver_2.html ]
Riff I
======
     q   e e e e e e   e e e e e e q     q   e e e e e e   e e e e e e q  
G-||-----------------|-----------------|-----------------|-----------------|
D-||-----------------|-----------------|-----------------|-----------------|
A-||-5---5-5-5-5-5-5-|-5-5-5-5-5-5-0---|-3---3-3-3-3-3-3-|-3-3-3-3-3-3-0---|
E-||-----.-.-.-.-.-.-|-.-.-.-.-.-.-----|-----.-.-.-.-.-.-|-.-.-.-.-.-.-----|

Riff II
=======  

     q   e e e e e e   e e e e e e q     q   e e e e e e   e e e q   e e e
G-||-----------------|-----------------|-----------------|-----------------|
D-||-----------------|-----------------|-----------------|-2-3-2-3---5-5-5-|
A-||-5---5-5-5-5-5-5-|-5-5-5-5-5-5-0---|-3---3-3-3-3-3-3-|-----------------|
E-||-----.-.-.-.-.-.-|-.-.-.-.-.-.-----|-----.-.-.-.-.-.-|-----------------|


Intro : 	Riff 0 (with crescendo)
		Riff I then drums enter
		Riff I	(x3)
		Riff II

"Radio Live Transmission" :	Riff I	(x2)

Break :	Riff I	(x2)

1st Verse :	Riff I	(x3)
		Riff II

2nd Verse :	Riff I	(x2)

Guitar Solo : Riff I	(x4)

Chorus :	Riff I 	(x3)
		Riff II

3rd Verse :	Riff I	(x3)

Chorus :	Riff I	(x3)
		Riff II

drums end...


Comments