Joy Division - New Dawn Fades Chords & Tabs

 

New Dawn Fades Chords & Tabs

Joy Division Chords & Tabs

Version: 3 Type: Tab 0 ratings
1 star 2 stars 3 stars 4 stars 5 stars
comments

New Dawn Fades Tab

   
Titel: New Dawn Fades (Joy Devision Cover)
Interpret: John Frusciante
Recorded live in a Bar

Autor: andi (white.andi@mail.ru)


+---------+
 1o = 10 
 A  = 11 
 B  = 12 
 ~  bend 
+---------+



===

E|---------------------------------|---------------------------------|
B|---------------------------------|---------------------------------|
G|---------9-------9-------9-9-----|---------7-------7-------7-7-----|
D|-9---9-9-9---9-9-9---9-9-9-9-9-9-|-7---7-7-7---7-7-7---7-7-7-7-7-7-|
A|-7---7-7-7---7-7-7---7-7-7-7-7-7-|-5---5-5-5---5-5-5---5-5-5-5-5-5-|
E|---------------------------------|---------------------------------|

E|---------------------------------|---------------------------------|
B|---------------------------------|---------------------------------|
G|---------5-------5-------5-5-----|---------2-------2-------2-2-----|
D|-5---5-5-5---5-5-5---5-5-5-5-5-5-|-2---2-2-2---2-2-2---2-2-2-2-2-2-|
A|-3---3-3-3---3-3-3---3-3-3-3-3-3-|-0---0-0-0---0-0-0---0-0-0-0-0-0-|
E|---------------------------------|---------------------------------| 2x


E|---------------------------------|---------------------------------|
B|---------------------------------|---------------------------------|
G|---------------------------------|---------------------------------|
D|-2-------2---2-2-4---4-4-5---5-5-|-7-------7---7-7-9---7---7-7-7---|
A|-x-------x---x-x-x---x-x-x---x-x-|-5-------5---5-5-5---5---5-5-5---|
E|-0-------0---0-0-0---0-0-0---0-0-|---------------------------------|

E|---------------------------------|---------------------------------|
B|---------------------------------|---------------------------------|
G|---------------------------------|---------------------------------|
D|-7-----7-7---9-------7---9-9-7---|-2-----2-4---2-------2---2-2-2---|
A|-x-----x-x---x-------x---x-x-x---|-0-----0-0---0-------0---0-0-0---|
E|-8-----8-8---8-------8---8-8-8---|---------------------------------| 2x


=== 

E|---------------------------------|---------------------------------|
B|---------------------------------|---------------------------------|
G|---------------------------------|---------------------------------|
D|-2---2-2-4---2-2-4---2-4---4-2---|-2---2-2-4---2-2-4---2-4---4-2---|
A|-x---x-x-x---x-x-x---x-x---x-x---|-5---5-5-5---5-5-5---5-5---5-5---|
E|-0---0-0-0---0-0-0---0-0---0-0---|-x---x-x-x---x-x-x---x-x---x-x---|

E|---------------------------------|---------------------------------|
B|---------------------------------|---------------------------------|
G|---------------------------------|---------------------------------|
D|-2---2-2-4---2-2-4---2-4---4-2---|-2---2-2-4---2-2-4---2-4---4-2---|
A|-3---3-3-3---3-3-3---3-3---3-3---|-0---0-0-0---0-0-0---0-0---0-0---|
E|-x---x-x-x---x-x-x---x-x---x-x---|-x---x-x-x---x-x-x---x-x---x-x---| 2x


E|---------------------------------|---------------------------------|
B|---------------------------------|---------------------------------|
G|-9---9-9-A---9-9-A---9-A---A-9---|-9---9-9-A---9-9-A---9-A---A-9---|
D|-x---x-x-x---x-x-x---x-x---x-x---|-0---0-0-0---0-0-0---0-0---0-0---|
A|-x---x-x-x---x-x-x---x-x---x-x---|-x---x-x-x---x-x-x---x-x---x-x---|
E|-0---0-0-0---0-0-0---0-0---0-0---|1o--1o1o1o--1o1o1o--1o1o--1o1o---|
[ Tab from: http://www.guitartabs.cc/tabs/j/joy_division/new_dawn_fades_tab_ver_3.html ]
E|---------------------------------|---------------------------------|
B|---------------------------------|---------------------------------|
G|-9---9-9-A---9-9-A---9-A---A-9---|-9---9-9-A---9-9-A---9-A---A-9---|
D|-x---x-x-x---x-x-x---x-x---x-x---|-x---x-x-x---x-x-x---x-x---x-x---|
A|-x---x-x-x---x-x-x---x-x---x-x---|-0---0-0-0---0-0-0---0-0---0-0---|
E|-8---8-8-8---8-8-8---8-8---8-8---|-x---x-x-x---x-x-x---x-x---x-x---| 2x


===

E|---------7---7-7-----7---7---7---|---------5---5-5-----5---5---5---|
B|---------7---7-7---7-7-7-7-7-7-7-|---------5---5-5---5-5-5-5-5-5-5-|
G|-9---9-9-9---9-9---9-9-9-9-9-9-9-|-7---7-7-7---7-7---7-7-7-7-7-7-7-|
D|-9---9-9-9---9-9---9-9-9-9-9-9-9-|-7---7-7-7---7-7---7-7-7-7-7-7-7-|
A|-7---7-7-7---7-7---7-7-7-7-7-7-7-|-5---5-5-5---5-5---5-5-5-5-5-5-5-|
E|-7---7-7-------------------------|-5---5-5-------------------------|

E|---------3---3-3-----3---3---3---|---------0-----------0---0---0---|
B|---------3---3-3---3-3-3-3-3-3-3-|---------0---0-0---0-0-0-0-0-0-0-|
G|-5---5-5-5---5-5---5-5-5-5-5-5-5-|-2---2-2-2---2-2---2-2-2-2-2-2-2-|
D|-5---5-5-5---5-5---5-5-5-5-5-5-5-|-2---2-2-2---2-2---2-2-2-2-2-2-2-|
A|-3---3-3-3---3-3---3-3-3-3-3-3-3-|-0---0-0-0---0-0---0-0-0-0-0-0-0-|
E|-3---3-3-------------------------|-0---0-0-------------------------|


===

E|---------------------------------|---------------------------------|
B|---------------------------------|---------------------------------|
G|-A---A---9---9-9-x-----x---x-x---|-A---A---9---9-9-A-----A---A-A---|
D|-x---x---x---x-x-9-----9---9-9---|-0---0---0---0-0-0-----0---0-0---|
A|-x---x---x---x-x-x-----x---x-x---|-x---x---x---x-x-x-----x---x-x---|
E|-0---0---0---0-0-0-----0---0-0---|1o--1o--1o--1o1o1o----1o--1o1o---|

E|---------------------------------|---------------------------------|
B|---------------------------------|---------------------------------|
G|-A---A---9---9-9-x-----x---x-x---|-A---A---9---9-9-A---A~A~A~A~A---|
D|-x---x---x---x-x-9-----9---9-9---|-x---x---x---x-x-x---x-x-x-x-x---|
A|-x---x---x---x-x-x-----x---x-x---|-0---0---0---0-0-0---0-0-0-0-0---|
E|-8---8---8---8-8-8-----8---8-8---|-x---x---x---x-x-x---x-x-x-x-x---| 2x


E|---------------------------------|---------------------------------|
B|---------------------------------|-1o------1o--1o1oB---1o--1o1o1o--|
G|-9-------9---9-9-A---A-A-B---B-B-|-x-------x---x-x-x---x---x-x-x---|
D|-x-------x---x-x-x---x-x-x---x-x-|-0-------0---0-0-0---0---0-0-0---|
A|-x-------x---x-x-x---x-x-x---x-x-|---------------------------------|
E|-0-------0---0-0-0---0-0-0---0-0-|---------------------------------|

E|---------------------------------|---------------------------------|
B|-1o----1o1o--B-------1o--B-B-1o--|---------------------------------|
G|-x-----x-x---x-------x---x-x-x---|1o----1o-B--1o------1o--1o1o1o---|
D|-x-----x-x---x-------x---x-x-x---|-x-----x-x---x-------x---x-x-x---|
A|-x-----x-x---x-------x---x-x-x---|-0-----0-0---0-------0---0-0-0---|
E|-8-----8-8---8-------8---8-8-8---|---------------------------------| 2x
                                                [>] bei 2.

  [>]
E|---------------------------------|---------------------------------|
B|---------------------------------|---------------------------------|
G|---------------------------------|---------------------------------|
D|-5---4---2---0---5---4---2---0---|-5---4---2---0---0---------------|
A|-0---0---0---0---0---0---0---0---|-0---0---0---0---0---------------|
E|---------------------------------|-----------------0---------------|
Comments