Joy Division - Love Will Tear Us Apart Chords & Tabs

 

Love Will Tear Us Apart Chords & Tabs

Joy Division Chords & Tabs

Version: 1 Type: Bass Tab 0 ratings
1 star 2 stars 3 stars 4 stars 5 stars
comments

Love Will Tear Us Apart Bass Tab

   
"Love Will Tear Us Apart" by Joy Division (from the album "Substance")
======================================================================

transcribed by Gilles Velay (gvelay@free.fr)

Notations 
  w : whole       e : 8th
  h : half        s : 16th
  q : quarter    +++ : tied notes


Intro
----- 
Some may think it's the guitar but I'm pretty sure it's the bass that
plays those chords on the intro :

    e e e e e e e e  
G-|-9-9-9-9-9-9-9-9-|
D-|-7-7-7-7-7-7-7-7-|  (x 8)
A-|-----------------|
E-|-----------------|

[ Tab from: http://www.guitartabs.cc/tabs/j/joy_division/love_will_tear_us_apart_btab.html ]
Main Riff
---------
    q   e q   e e e   q     e  q     e  q       q   e e e e e e  
G-|-9---9-9---9-9-9-|-11----12-11----9--7-----|---------------7-|
D-|-----------------|-------------------------|-9---9-9-9-9-9---|
A-|-----------------|-------------------------|-----------------|
E-|-----------------|-------------------------|-----------------|

    e e e e e e e e  
G-|-9-9-9-9-9-9-9-9-|
D-|-7-7-7-7-7-7-7-7-|
A-|-----------------|
E-|-----------------|


Break Riff
----------
    q   e e e e e e  
G-|-9---9-9-9-9-9-9-|
D-|-7---7-7-7-7-7-7-|  (x 8)
A-|-----------------|
E-|-----------------|





Comments