Joy Division - Interzone Chords & Tabs

 

Interzone Chords & Tabs

Joy Division Chords & Tabs

Version: 1 Type: Bass Tab 0 ratings
1 star 2 stars 3 stars 4 stars 5 stars
comments

Interzone Bass Tab

   
"Interzone" by Joy Division (from the album "Unknown Pleasures")
================================================================

transcribed by Gilles Velay

Any comments, corrections or suggestions ?
Please email me at gvelay@club-internet.fr

Notation :
	w : whole         R : rest
	h : half          \ : slide down
	q : quarter       / : slide up
	e : 8th           h : hammer on

[ Tab from: http://www.guitartabs.cc/tabs/j/joy_division/interzone_btab.html ]
Riff I
======
     e e e e e e e e   e e e q   e q  
G-||-----------------|-----------------||
D-||-----------------|-----------------||
A-||-0-0-0-0-0-0-0-0-|-0-0-0-3-/-5-3---||
E-||-----------------|-----------------||

Riff II
=======  
     q   q   e e q     e e e q   e q
G-|-----2-------2---|-----------------|
D-|-----------------|-----------------|
A-|-0-------0-0-----|-0-5/7-5---5-3---|
E-|-----------------|-----------------|

     q   q   e e q     q   h+q 
G-|-----2-------2---|-----------------|
D-|-----------------|-----------------|
A-|-0-------0-0-----|-0---R-----------|
E-|-----------------|-----------------|



Intro : 	drums start
		guitar enters then ...
		Riff I	

Verses :	Riff I	(xN)

Choruses :	Riff II




Comments