Jota Quest - Encontrar Alguem Chords & Tabs

 

Encontrar Alguem Chords & Tabs

Jota Quest Chords & Tabs

Version: 1 Type: Bass Tab 0 ratings
1 star 2 stars 3 stars 4 stars 5 stars
comments

Encontrar Alguem Bass Tab

   
Encontrar Alguém - Jota Quest


Intro/Refrão:
[ Tab from: http://www.guitartabs.cc/tabs/j/jota_quest/encontrar_alguem_btab.html ]
   D       C#m F#m
G|---------------------------------|
D|---------------------------------|
A|-5-----5--4--------------------4-| (2x)
E|-----5--------2--2--2-0-2--2-4---|
   D        C#m   F#m                     F              E4
G|--------------------------------------|-----------------------------------|
D|--------------------4-4-------2-----2-|-----------------------------------|
A|-5-----5--4b5b4-----------2h4---2h4---|-----------------------------------|
E|-----5-----------2------2-------------|-1---1---1--1---0--0--0--0--1/10\1-|


Verso:

  F#m                Bm
G|--------------------------------------------|
D|--------------------------------------------|
A|-----------------0--2---2-2-----2-2--4-2----| (7x)
E|-2---2---2-2--0---------------2-----------5-|

(Pequena variação na quarta vez no Bm: "que existe em todo sonho bom...")

  F#m           E
G|----------------------|
D|----------------------|
A|----------------------|
E|-2---2---2-2--0-------|

Transcrito por Aquiles Ribeiro Vaz - kalino@newview.com.br
By Music Site - http://www.newview.com.br/tabs

Comments