Joss Stone - My God Chords & Tabs

 

My God Chords & Tabs

Joss Stone Chords & Tabs

Version: 1 Type: Bass Tab 0 ratings
1 star 2 stars 3 stars 4 stars 5 stars
comments

My God Bass Tab

Artist: Joss Stone
Song: My God
Album: Introducing...(2007)

Hi, this is my first tab. Enjoy.
[ Tab from: http://www.guitartabs.cc/tabs/j/joss_stone/my_god_btab.html ]
G||--------------------------------------------|
D||-----------4--------------------------------|
A||-----------------------------4--2--------4--|
E||--2------2---2------0--2--5--------5--2-----|

G||-----------7--------------------------------|
D||--------------------------------------------|
A||--5------5---5---------------4--2-----------|
E||--------------------0--2--5--------5--2--0--|

repeat

tabbed by: exe
e-mail: nosoymutante@hotmail.com

Comments