Joss Stone - Fell In Love With A Boy Chords & Tabs

 

Fell In Love With A Boy Chords & Tabs

Joss Stone Chords & Tabs

Version: 4 Type: Tab 0 ratings
1 star 2 stars 3 stars 4 stars 5 stars
comments

Fell In Love With A Boy Tab

JOSS STONE - FELL IN LOVE WITH A BOY

I was trying to look for these tabs as i have to learn it for college but then found
most of the tabs on the internet were trying to make me play ridiculous chords. It then
clear to me that people hadn't actually worked it out but copied and pasted. So, i 
to work it out myself.

Tis a bit vague but its not hard to understand.

Enjoy.

Big_chriz@hotmail.com

Standard Tuning


Main Riff:

e-----------------------------------------|
B-----------------------------------------|
G----8b10--10r8p6----6--------------------|
D-----------------8-----8sd---------------|
A-----------------------------------------|
E-----------------------------------------|
[ Tab from: http://www.guitartabs.cc/tabs/j/joss_stone/fell_in_love_with_a_boy_tab_ver_4.html ]
e-----------------------------------------|
B-----------------------------------------|
G----8b10--10r8p6---6--8b9----------------|
D-----------------8-----------------------|
A-----------------------------------------|
E-----------------------------------------|

Verse:

e-----6---6-6--6-6--6-6--6-6--------------|
B-----6---6-6--6-6--6-6--6-6--------------|
G-----8---6-6--6-6--6-6--6-6--------------|  x8
D-----------------------------------------|
A-----------------------------------------|
E-----------------------------------------|

e-----8--8---8--8----8--8---8-------------|
B-----10-10--10-10---10-10--10------------|
G-----8--8---8--8----8--8---8-------------|  (3 bars)
D-----------------------------------------|
A-----------------------------------------|
E-----------------------------------------|

e-----6--6-6-6-6----6--6-6-6--------------|
B-----8--8-8-8-8----7--7-7-7--------------|
G-----6--6-6-6-6----8--8-8-8--------------|
D-----------------------------------------|
A-----------------------------------------|
E-----------------------------------------|
Comments