Josie And The Pussycats - You Dont See Me Chords & Tabs

 

You Dont See Me Chords & Tabs

Josie And The Pussycats Chords & Tabs

Version: 1 Type: Tab 0 ratings
1 star 2 stars 3 stars 4 stars 5 stars
comments

You Dont See Me Tab

   
    This song was tabbed several times, they sounded great but none of 
them sounded the same when I played it to the song. so here is the
correction. this is the best i came up with so I hope you like it!!!!


intro:

E|-------5-0-----------5-0------------5-0------------5-0-----------|
G|-----------------------------------------------------------------|
B|-------------7--7---------------------------7--7-----------------|
D|--7--7-------7--7----------4--4-------------7--7-----------------|
A|--7--7-------5--5----------2--2-------------5--5-----------------|
E|--5--5-----------------------------------------------------------|



"this is the place where i sit....."

E|-------5-0----------5-0-----------5---5------------5-4------------|
G|------------------------------------------5---5----5-5------------|
B|-------------7--7-------------------------------------------------|
D|--7--7-------7--7----------4--4-----------------------------------|x2  
A|--7--7-------5--5----------2--2-----------------------------------|
E|--5--5------------------------------------------------------------|  



"I'm here if you want me...."


E|----------------------------------------------------------5---4----|
G|----------5----7------7-----5--------------5---7----------5---5----|
B|-------------------7--7-----7-----------------------9--9-----------|
D|---7--7------------7---------------4--4-------------9--9-----------|
A|---7--7------------5---------------2--2-------------7--7-----------|
E|---5--5------------------------------------------------------------|


the chorus uses the same chords used in the intro but it is played differently. you'll know what i mean if you listen to the song.

"  'cause you don't see me....."


E|-------5-0----------5-0-----------5---5------------5-4------------|
G|------------------------------------------5---5----5-5------------|
B|-------------7--7-------------------------------------------------|
D|--7--7-------7--7----------4--4-----------------------------------|  
A|--7--7-------5--5----------2--2-----------------------------------|
E|--5--5------------------------------------------------------------|


"you don't know me, the way i wish you would, the way i know you could"

  
E|-4--4--4--4----5--5---5--5--5-------5(ring)-4(ring)-5(ring)-4(ring)|
G|-5--5--5--5----5--5---5--5--5-------5-------5-------5-------5------|
B|-4--4--4--4----x--x-----------------4-------4-------4-------4------|
D|---------------x--x------------------------------------------------|  
A|---------------4--4------------------------------------------------|
E|---------------5--5------------------------------------------------|


"i dream a world..."


E|-------5-0----------5-0-----------5---5------------5-4------------|
G|------------------------------------------5---5----5-5------------|
B|-------------7--7-------------------------------------------------|
D|--7--7-------7--7----------4--4-----------------------------------|  
A|--7--7-------5--5----------2--2-----------------------------------|
E|--5--5------------------------------------------------------------|  


E|-------5-0----------5-0-----------5---5---------2-----4-----------|
G|------------------------------------------5-----5-----5-----------|
B|-------------7--7-------------------------------------------------|
D|--7--7-------7--7----------4--4-----------------------------------|  
A|--7--7-------5--5----------2--2-----------------------------------|
E|--5--5------------------------------------------------------------|  


"i'm speechless and faded, it's too complicated...."


E|----------------------------------------------------------5---4----|
G|----------5----7------7-----5--------------5---7----------5---5----|
B|-------------------7--7-----7-----------------------9--9-----------|
D|---7--7------------7---------------4--4-------------9--9-----------|
A|---7--7------------5---------------2--2-------------7--7-----------|
E|---5--5------------------------------------------------------------|


chorus "cuz you don't see me...."

[ Tab from: http://www.guitartabs.cc/tabs/j/josie_and_the_pussycats/you_dont_see_me_tab.html ]
E|-------5-0----------5-0-----------5---5------------5-4------------|
G|------------------------------------------5---5----5-5------------|
B|-------------7--7-------------------------------------------------|
D|--7--7-------7--7----------4--4-----------------------------------|  
A|--7--7-------5--5----------2--2-----------------------------------|
E|--5--5------------------------------------------------------------|


"you don't know me,the way i wish you would, the way i know you could"


E|-4--4--4--4----5--5---5--5--5-------5-------4----------------------|
G|-5--5--5--5----5--5---5--5--5-------5-------5----------------------|
B|-4--4--4--4----x--x-----------------4-------4----------------------|
D|---------------x--x------------------------------------------------|  
A|---------------4--4------------------------------------------------|
E|---------------5--5------------------------------------------------|

chords:Em         A          C          D                       Em
    ooohhhhhh ohhhhhhhh ooooohhhhhh oohhhhhhh(the way i wish you would)
  

    A          C            D                
ooooohhhh  ohhhhhhhh      oooo...


".....ohhhhh"

E|---5----4----5(ring)-|
G|---5----5----5-------|
B|---4----4----4-------|
D|---------------------|
A|---------------------|
E|---------------------|


"this is the place in my heart..."


E|-------5-0----------5-0-----------5---5------------5-4------------|
G|------------------------------------------5---5----5-5------------|
B|-------------7--7-------------------------------------------------|
D|--7--7-------7--7----------4--4-----------------------------------|x2  
A|--7--7-------5--5----------2--2-----------------------------------|
E|--5--5------------------------------------------------------------| 


"i wish i was lonely....."


E|-------------------------------------------------------------------|
G|----------5----7------7-----5--------------5---7-------------------|
B|-------------------7--7-----7-----------------------9--9-----------|
D|---7--7------------7---------------4--4-------------9--9-----------|
A|---7--7------------5---------------2--2-------------7--7-----------|
E|---5--5------------------------------------------------------------|


"...and not enough to yooooooouuuuuuuuu...."

E|----5---4---5---4---2---4-----|
G|----5---5---5---5---5---5-----|
B|----4---4---4---4---4---4-----|
D|------------------------------|
A|------------------------------|
E|------------------------------|

"cuz you don't see me...."


E|-------5-0----------5-0-----------5---5------------5-4-----|
G|------------------------------------------5---5----5-5-----|
B|-------------7--7------------------------------------------|
D|--7--7-------7--7----------4--4----------------------------|  
A|--7--7-------5--5----------2--2----------------------------|
E|--5--5-----------------------------------------------------|
                                                           
                                                               

E|-4--4--4--4----5--5---5--5--5-------5-------4--------------|
G|-5--5--5--5----5--5---5--5--5-------5-------5--------------|
B|-4--4--4--4----x--x-----------------4-------4--------------|
D|---------------x--x----------------------------------------|  
A|---------------4--4----------------------------------------|
E|---------------5--5----------------------------------------|


E|-------5-0----------5-0-----------5---5------------5-4-----|
G|------------------------------------------5---5----5-5-----|
B|-------------7--7------------------------------------------|
D|--7--7-------7--7----------4--4----------------------------|  
A|--7--7-------5--5----------2--2----------------------------|
E|--5--5-----------------------------------------------------|


E|-4--4--4--4----5--5---5--5--5-------5----4----5---------|
G|-5--5--5--5----5--5---5--5--5-------5----5----5---------|
B|-4--4--4--4----x--x-----------------4----4----4---------|
D|---------------x--x-------------------------------------|  
A|---------------4--4-------------------------------------|
E|---------------5--5-------------------------------------|


"...the way i know you could."

E|---------------4(ring)-|           
G|----------5------------|
B|-----------------------|
D|-----------------------|
A|------4----------------|             the end!!!!!
E|--5--------------------|


    I've played this to the song about a million times so i know that 
it's right. I mean it's not exact, but it's close enough to the real
one. i hope you enjoy playing it. if you have any questions,
email me at mickey_ad2000@yahoo.com      
Comments