Josie And The Pussycats - Three Small Words Chords & Tabs

 

Three Small Words Chords & Tabs

Josie And The Pussycats Chords & Tabs

Version: 1 Type: Tab 0 ratings
1 star 2 stars 3 stars 4 stars 5 stars
comments

Three Small Words Tab

   
Josie and the Pussycats - Three Small Words
by: _flANdERS_

Intro: (2 different, both sound good, combined with 2 guitars sounds great!)
|-play 2 times-----------| |--play 2 times---------(2nd time play A)--|
|------------------------| |--------------10-9------------------|-5---|
|-------------2-1-4--2---| |--9------------9-9-11--14-----------|-7---|
|-2-----------2-2-4--2---| |--9(let ring)--7-7-11--14-----------|-7---|
|-2(let ring)-0-0-2--0---| |--7-----------------9--12-----------------|
|-0----------------------| |------------------------------------------|

Verse:
E - B - A - F#

[ Tab from: http://www.guitartabs.cc/tabs/j/josie_and_the_pussycats/three_small_words_tab.html ]
Chorus: (play this twice to have one chorus)
E - B - C# - A
E - B - A

Solo:
|--------------------------------------------------------very fast---|
|--------------------------------------------------------many times--|
|----------------------------9----11--14--9----11--14---------9-9----|
|-9/\--7------------6-7-9-11-----------------------------------------|
|-----------4-6-7-9----------7----9---12--7----9---12-----7-7--------|
|--------------------------------------------------------------------|

Order:
Intro
Verse
Chorus
Intro
Verse
Chorus
Solo
Chorus
Chorus
  end in "E"

power chords:
E  xx997x
B  xxx997
A  xxx775
F# xxx442
C# xx664x
Comments