Joshua Radin - Winter Chords & Tabs

 

Winter Chords & Tabs

Joshua Radin Chords & Tabs

Version: 1 Type: Tab 0 ratings
1 star 2 stars 3 stars 4 stars 5 stars
comments

Winter Tab

   
Artist: Josh Radin
Title: Winter
Josh Radin's website where you can download winter is at: 
(You can no longer download this song off of his website for free,
but you can hear it here http://www.myspace.com/joshuaradin)
http://www.joshuaradin.com/

Tuning:EADGBe
Capo 4 on "First Between 3rd and 4th" EP version
Capo 5 on original version (This version is sparser than the EP version)
Fingerpicked

There are various hammer-ons and pull-offs throughout
the song that can easily be imrpovised.This tab
is roughly what the song sounds like, i think
it is probably about 90% accurate. Just play around with
it to the record. Fantastic Song. Any queries or corrections
please email me at kc_sharky@hotmail.com


Intro/Verse

----------------------------------------------------|
 ----1-------------1------------1--------0h1-1-0h1--|
 ------2---0---------2---0--------0------0---0-0h2--|
 -2------2------3------3------------------------h2--|
 ----------------------------3--------2-------------|
 -------------------------------------3-------------|
 Am            F             C        Cmaj9/G

Sometimes there's a variation on the C chord:
 --------------|
 ----1h3p1-0h1-|
 --------------|
 --------------|
 -3------------|
 --------------|

Chorus

Part 1

 -0-0h1-1-0h1-1h3-1--------------------|
 -3-3---3-3---3---3----0h1-1-0h1-1h3-1-|
 -2-2---2-2---2---2----0---0-0---0---0-|
 --------------------------------------|
 --------------------------------------|
 --------------------3-----------------|
  Dm                 Cmaj9/G

 --------------------------------------------|
 -1-----1--0h1-1-1h3-1-0h1---1-1---1-0h1-1-1-|
 -0--------0---0-0---0-0-----2-0h2-2-2---2-2-|
 -2-0h2----2-----------------3-3-----------3-|
 -3--------3---------------------------------|
 --------------------------------------------|
  C                          F

Part 2

 ------------------------------------------------|
 ---0h1-1-0h1--------1-------1---------1-1-1---1-|
 ---0---0-0--------0-------0-------0h2---2-0h2-2-|
 ------------------2-------0-----3-------3-3---3-|
 ---------------3-------2--------3---------------|
 -3----------------------------------------------|
  Cmaj9/G       C                F

Part 3

 ----------------------|
 -1-1---1--1-1---1-0h1-|
 -0-0------0-0---0-0---|
 -2-0h2----2-0h2-------|
 -3-3------3-3---------|
 ----------------------|
  C


Break
[ Tab from: http://www.guitartabs.cc/tabs/j/joshua_radin/winter_tab.html ]
 -------------------------------------------------------|      x2
 -1-1-1----------0h1-1-0h1--1-1-1--------------1------1-|
 -2-2---2---0----0---0-0----2-2---2---2------0------0---|
 -2-2-----2-----------------3-3-----3--------2------0---|
 --------------2--------------------------3-------2-----|
 --------------3----------------------------------------|
  Am           Cmaj9/G      F             C

 -------------------------------------------------|
 -1-1-1----------0h1-1-0h1---1---1-1-1----1-0h1-1-|
 -2-2---2---0----0---0-0-----0-0---0-0----0-0---0-|
 -2-2-----2------------------2-2---2-0h2--2-------|
 --------------2-------------3-----3-3------------|
 --------------3----------------------------------|
  Am           Cmaj9/G      C


Outro

 --------------------------------------|
 -1-1-----0--1-1----------1h3-3--0---1-|
 -2---2------2---2---0----0---1-0----0-|
 -3-----3----2-----2-----------------2-|
 ------------0----------2------------3-|
 -----------------------3--------------|
  F          Am         Cmaj9/G      C

Structure:
Intro x2

Verse x5                   I should know who I am by now
                           I walk the record stand somehow
                           Thinkin' of winter
                           Your name is the splinter inside me
                           While I wait

Chorus Part 1 x2           And I remember the sound
                           Of your November downtown
                           And I remember the truth
                           A warm December with you
Chorus Part 2 x2           But I don't have to make this mistake
                           And I don't have to stay this way
Chorus Part 3              If only I would wake

Verse x 5                  The walk has all been cleared by now
                           Your voice is all I hear somehow
                           Calling out winter
                           Your voice is the splinter inside me
                           While I wait

Chorus Part 1 x2           And I remember the sound
                           Of your November downtown
                           And I remember the truth
                           A warm December with you
Chorus Part 2 x2           But I don't have to make this mistake
                           And I don't have to stay this way
Chorus Part 3              If only I would wake

Break                      I could have lost myself
                           In rough blue waters in your eyes,
                           And I miss you still

Chorus Part 1 x2           And I remember the sound
                           Of your November downtown
                           And I remember the truth
                           A warm December with you
Chorus Part 2 x2           But I don't have to make this mistake
                           And I don't have to stay this way
Chorus Part 3              If only I would wake
Comments