Josh Kelley - Amen Chords & Tabs

 

Amen Chords & Tabs

Josh Kelley Chords & Tabs

Version: 1 Type: Tab 0 ratings
1 star 2 stars 3 stars 4 stars 5 stars
comments

Amen Tab

   
Artist    : Josh Kelley
Song      : Amen
Album     : For The Ride Home
Tabbed By : Jo Lefebure (whipy@hotmail.com)

Standard tuning. Capo 3rd fret:

(1) Intro & Verses:

e|--------------------------------------------------|
b|------3---3-------3------------3-----------3------|
g|----2-----------2------0-----0-----0-----0-----0--|
d|--0-----0-----4------4----------------------------|
a|---------------------------2-----2-----0-----0----|
e|--------------------------------------------------|

e|------------------------------------------------|
b|------3--------2h3------------3----------3------|
g|----0-----0--------0---0----0-----0----0-----0--|
d|---------------------0--------------------------|
a|-------------0----------------------------------|
e|--0-----0-----------------2-----2----3-----3----|

e|------------------------------2----------2----------2----------2------|
b|------3--------2h3-----0----------3----------3----------3----------3--|
g|----0-----0--------0--------2----------2----------2----------2--------|
d|---------------------0----0-----0----0-----0----0-----0----0-----0----|
a|-------------0--------------------------------------------------------|
e|--0-----0-------------------------------------------------------------|


(2) Chorus: (you can either play the chords or use the fingerpicking pattern above)
             F        G
And it's the way that we
        D
Will forgive ourselves
             F        G
And it's the way that we
         D
Will for no one else
             F        G
And it's the way that we
         D               G
Will put pressure on our bones
        F            G
That we never leave alone
[ Tab from: http://www.guitartabs.cc/tabs/j/josh_kelley/amen_tab.html ]
(3) Amen
e|----------------------------------------------|
b|------3---3------3----------3----------3------|
g|----2----------0-----0----0-----0----0-----0--|
d|--0-----0-------------------------------------|
a|-------------2-----2----3-----3----2-----2----|
e|----------------------------------------------|

Em/G             F#/D  G     F#/D
    And lately, it's a song
Em/G             F#/D  G         A
    And so maybe, I am wrong for now

Solo (fingerpicked):

e|--2~~--3--2--0--2~~--0-----0-------0-----2h3-2~~--|
b|--3~~--3--3--3--3~~--3--3--3--3~~------3----------|
g|--2~~--2--2--2--2~~--2--2--2--2~~--2-2------------|
d|--------------------------------------------------|
a|--------------------------------------------------|
e|--------------------------------------------------|

e|--5----3-----2-----0-----2-0----------|
b|----0----0-----0-----0-------3-0-3~~--|
g|------0----0-----0-----0--------------|
d|--------------------------------------|
a|--------------------------------------|
e|--------------------------------------|

e|-------------------------------------------------|
b|----------0------/5-3-0-0-----------------3/5-3--|
g|------2-----2~~---------2h4-2~~-----2---2--------|
d|--2h4---4-----------------------2h4---4----------|
a|-------------------------------------------------|
e|-------------------------------------------------|

e|------------------------------------------------------------------------|
b|--2h3-2----------0~~---3~~---5~~---3~~---0~~---------0------------------|
g|--2----------2-----------------------------------2-----2~~--------------|
d|---------2h4---4-----4-----4-----4-----4-----2h4---4-------4-2----------|
a|---------------------------------------------------------------5-2-5~~--|
e|------------------------------------------------------------------------|


Chords used:

F:    133211
G:    320033
D:    XX0232
Em/G: 022033
F#/D: 2X023X
A:    X0222X
Comments