Josh Groban - You Raise Me Up Chords & Tabs

 

You Raise Me Up Chords & Tabs

Josh Groban Chords & Tabs

Version: 2 Type: Tab 0 ratings
1 star 2 stars 3 stars 4 stars 5 stars
comments

You Raise Me Up Tab

e|---------------------------------------------------------------------------|
B|---------------------------------------------------------------------------|
G|-3-3---8---12---8---12---8--8----------8-----7--8---13---16------18---16-1-|
D|-------------------------------12---8------------------------14------------|
A|---------------------------------------------------------------------------|
E|---------------------------------------------------------------------------|
[ Tab from: http://www.guitartabs.cc/tabs/j/josh_groban/you_raise_me_up_tab_ver_2.html ]
e|--------------------------------------------10---11-------------10---8---6-|
B|------------------------------------11--11------------------9--------------|
G|-16-----10------14----16----18---------------------------------------------|
D|----14---------------------------------------------------------------------|
A|---------------------------------------------------------------------------|
E|---------------------------------------------------------------------------|

e|-4--6----------------------------------------------------------------------|
B|--------4--3--4----6----8--11---8----6----4--------------------------------|
G|---------------------------------------------------------------------------|
D|---------------------------------------------------------------------------|
A|---------------------------------------------------------------------------|
E|---------------------------------------------------------------------------|

this is the real intro..... submitted by archy51
Comments