Joseph Arthur - Honey And The Moon Chords & Tabs

 

Honey And The Moon Chords & Tabs

Joseph Arthur Chords & Tabs

Version: 4 Type: Tab 0 ratings
1 star 2 stars 3 stars 4 stars 5 stars
comments

Honey And The Moon Tab

   
Capo VII
verse
    C        G/B  F     G         Am
---------------------------------------0---------|
-------1-----3------1----0-------0H1-------------|
-----0-------0------2----0-----------2-----0H2---|
---2-------0-------3----0------2---------2-------|
-3-------2-------------------0-------------------|
-----------------1-----3-------------------------|
      Em
--------------|
--------------|
------0-------|
----2-----0H2-|
--2-----2-----|
0-------------|

And now this is when he switches it up at :34 and 1:29, he
does it other times but i think you can catch on: this is the chorus
  F        G      C        Em   1st and 2nd
----------------------|-------------|
-----1-----0------1---|------0------|
-----2-----0------0---|------0------|
-----3-----0----2-----|------2------|
---0-----2----3-------|----2--------|
-1-----3--------------|--0----------|
[ Tab from: http://www.guitartabs.cc/tabs/j/joseph_arthur/honey_and_the_moon_tab_ver_4.html ]
3rd  Am
------------0-------|---------------------------|
------0H1-----------|-- repeat Am --------------|
----------2-----0H2-|---------------------------|
----2---------2-----|---------------------------|
--0-----------------|---------------------------|
--------------------|---------------------------|
     Em
---------------|--------------------------------|
---------------|-repeat Em----------------------|
-------0-------|--------------------------------|
-----2-----0H2-|--------------------------------|
---2-----2-----|--------------------------------|
-0-------------|--------------------------------|
      G
----------------------|-------------------------|
------------0---------|-------------------------|
----------0-----------|--repeat G --------------|
--------0----------0--|-------------------------|
----0H2--------0H2----|-------------------------|
--3-------------------|-------------------------|

okay this is how it goes:
verse 3X
chorus
Comments