Jose Mari Chan - Please Be Careful With My Heart Chords & Tabs

 

Jose Mari Chan Chords & Tabs

Version: 1 Type: Tab 0 ratings
1 star 2 stars 3 stars 4 stars 5 stars
comments

Please Be Careful With My Heart Tab

   
Sana po maintindihan nyo yung tab...
Tabbed By: henry
intro:
      F#            Dm#            G#m             C#
|-----2--------|-----6--------|------4-------|--------9-----|
|--------------|---------7----|------4-------|----6---------|
|--------3-----|---------8----|--------------|----6---------|
|--------4-----|---------8----|---------6----|----6---------|
|--------4-----|-----6--------|---------6----|--------------|
|-----2--------|--------------|-------4------|--------------|
verse 1:
      F#           D#m
|-----2--------|----6---------|
|--------------|-------7------|
|--------3-----|-------8------|
|--------4-----|-------8------|
|--------4-----|--------------|
|-----2--------|----6---------|
    
      G#m            C#
|------4-------|-----4-----9---|
|------4-------|--------6------|
|------4-------|--------6------|
|---------6----|--------6------|
|---------6----|-----4---------|
|------4-------|---------------|

      G#m              C#
|------4-------|-----4--------|
|------4-------|-------6------|
|------4-------|-------6------|
|---------6----|-------6------|
|---------6----|-----4--------|
|------4-------|--------------|

        E             F#
|-------4------|-----6--------|
|--------5-----|-----6--7-----|
|-------4------|-----6--------|
|---------6----|---------8----|
|---------7----|-----------9--|
|--------------|--------------|

      B               C#
|------2-------|-----4--------|
|--------4-----|-------6------|
|--------4-----|-------6------|
|--------4-----|-------6------|
|------2-------|-----4--------|
|--------------|--------------|

      Bbm            D#m
|-----1--------|------6-------|
|-------2------|--------7-----|
|---------3----|--------8-----|
|---------3----|--------8-----|
|-----1--------|------6-------|
|--------------|--------------|

       G#m
|------4-------|
|------4-------|
|------4-------|
|---------6----|
|---------6----|
|------4-------|

      C#             F#   F#7
|----4---------|----2---------|
|-------6------|----2---------|
|-------6------|------3-------|
|-------6------|------4-------|
|----4---------|------4-------|
|--------------|----2---------|

        B             C#
|------2-------|-----4--------|
|--------4-----|--------6-----|
|--------4-----|--------6-----|
|--------4-----|--------6-----|
|------2-------|-----4--------|
|--------------|--------------|

       Bbm            D#m
|-----1--------|-----6--------|
|--------2-----|-------7------|
|--------3-----|-------8------|
|--------3-----|-------8------|
|-----1--------|-----6--------|
|--------------|--------------|

        G#m
|------4-------|
|------4-------|
|------4-------|
|---------6----|
|---------6----|
|-------4------|

      C#               F#-F
|-----4--------|-------2------|
|--------6-----|-------2------|
|--------6-----|---------3----|
|--------6-----|---------4----|
|-----4--------|---------4----|
|--------------|--------------|

verse 2
       B
|-----2--------|
|--------4-----|
|--------4-----|
|--------4-----|
|-----2--------|
|--------------|

     G#m             C#m           F#
|-----4--------|------4-------|-----2--------|
|-----4--------|--------5-----|-----2--------|
|-----4--------|----------6---|-------3------|
|--------6-----|----------6---|-------4------|
|--------6-----|------4-------|-------4------|
|-----4--------|--------------|-----2--------|

      C#m
|-----4--------|
|--------5-----|
|--------6-----|
|--------6-----|
|-----4--------|
|--------------|

      F#              B
|------2-------|----2---------|
|------2-------|-------3------|
|---------3----|-------3------|
|---------4----|-------3------|
|---------4----|----2---------|
|------2-------|--------------|

       Bb              D#m
|----1---------|-----6--------|
|-------3------|--------7-----|
|-------3------|----------8---|
|-------3------|----------8---|
|----1---------|-----6--------|
|--------------|--------------|
[ Tab from: http://www.guitartabs.cc/tabs/j/jose_mari_chan/please_be_careful_with_my_heart_tab.html ]
       C#            F#      
|-----4--------|-----2--------|
|--------6-----|-----2--------|
|--------6-----|--------3-----|
|--------6-----|--------4-----|
|-----4--------|--------4-----|
|--------------|-----2--------|

      B               C#                F#-F 
|---2----------|-----4--------|--------2-----|
|------4-------|--------6-----|--------2-----|
|------4-------|--------6-----|----------3---|
|------4-------|--------6-----|----------4---|
|---2----------|-----4--------|----------4---|
|--------------|--------------|--------2-----|

verse 3
       B
|----2---------|
|-------4------|
|-------4------|
|-------4------|
|--------------|
|----2---------|

       G#m             C#m            F#
|-----4--------|-----4--------|------2-------|
|-----4--------|-------5------|------2-------|
|-----4--------|-------6------|----------3---|
|--------6-----|-------6------|----------4---|
|--------6-----|-----4--------|----------4---|
|-----4--------|--------------|------2-------|

       C#m
|-----4--------|
|--------5-----|
|--------6-----|
|--------6-----|
|-----4--------|
|--------------|

   F#                  D#m              G#
|---2----------|--------6-----|--------4-----|
|---2----------|----------7---|--------------|
|------3-------|----------8---|-----------5--|
|------4-------|----------8---|-----------6--|
|------4-------|-------------|------------6--|
|---2----------|--------6-----|--------4-----|
 
      C#m             F#
|----4---------|-----2--------|
|-------5------|-----2--------|
|-------6------|--------3-----|
|-------6------|--------4-----|
|----4---------|--------4-----|
|--------------|-----2--------|

      D#m             F#
|----6---------|-----4--------|
|-------7------|-----4--------|
|-------8------|-----4--------|
|-------8------|--------6-----|
|----6---------|--------6-----|
|--------------|-----4--------|

       C#m    
|----4---------|
|-------5------|
|-------6------|
|-------6------|
|----4---------|
|--------------|

       F#               B             G
|----2---------|------2-------|------3-------|
|----2---------|---------3----|------3-------|
|--------3-----|---------3----|---------4----|
|--------4-----|---------3----|---------5----|
|--------4-----|------2-------|---------5----|
|----2---------|--------------|------3-------|

transposed chords to higher one

chorus:
       C               D
|----3---------|------5-------|
|-------5------|--------7-----|
|-------5------|--------7-----|
|-------5------|--------7-----|
|----3---------|------5-------|
|--------------|--------------|

       Bm            Em
|-----2--------|-----0--------|
|--------3-----|-----0--------|
|--------4-----|-----0--------|
|--------4-----|----2---------|
|-----2--------|----2---------|
|--------------|--------------|

        Am
|-----5--------|
|-----5--------|
|-----5--------|
|--------7-----|
|--------7-----|
|-----5--------|

        D            G              G7
|-----5--------|----3---------|-----1--------|
|--------7-----|----3---------|-----0--------|
|--------7-----|------4-------|----0---------|
|--------7-----|-------5------|---0----------|
|-----5--------|-------5------|--2-----------|
|--------------|--------------|-3------------|

       C               D
|-----3--------|-----5--------|
|--------5-----|--------7-----|
|--------5-----|--------7-----|
|--------5-----|--------7-----|
|--------------|-----5--------|
|-----3--------|--------------|

        Bm            Em
|-----2--------|-----0--------|
|--------3-----|-----0--------|
|--------4-----|-----0--------|
|--------4-----|-----2--------|
|-----2--------|-----2--------|
|--------------|--------------|

      Am
|----5---------|
|----5---------|
|----5---------|
|-------7------|
|-------7------|
|----5---------|

      D# 
|----6---------|
|-------8------|
|-------8------|
|-------8------|
|--------------|
|----6---------|

      Am
|----5---------|
|----5---------|
|----5---------|
|--------7-----|
|--------7-----|
|----5---------|

       D
|----5---------|
|--------7-----|
|--------7-----|
|--------7-----|
|----5---------|
|--------------|

       G
|-----3--------|
|-----3--------|
|--------4-----|
|----------5---|
|----------5---|
|-----3--------|

Para sa Tropa ko to...pinaghirapan ko yan...



Comments