Jose Gonzalez - In Our Nature Chords & Tabs

 

In Our Nature Chords & Tabs

Jose Gonzalez Chords & Tabs

Version: 1 Type: Tab 0 ratings
1 star 2 stars 3 stars 4 stars 5 stars
comments

In Our Nature Tab

   
Jose Gonzalez - In Our Nature - In Our Nature 2007
Tabbed by Dan Benton-Smith
Tuning low to high - D A D F# B e
Capo on 1st Fret

Just the intro at the mo will def work on it and get the rest of the song posted!

[ Tab from: http://www.guitartabs.cc/tabs/j/jose_gonzalez/in_our_nature_tab.html ]
------------------------------------------0----------------------|
-------3 let----3---3---3---3---3---3---3-3-0--------------------|
---1-----ring---3---3---3---3---3---3---3---3--------------------|
-----0------------0-------0-------0------------------------------|
-0--------------0-----0-0-----0-0-----0-0-----0------------------|
-----------------------------------------------------------------|

-----------------------------0---------------------------0-------|
-3---3---3---3---3---3---3---3---3---3---3---3---3---3---0---3---|
-3---3---3---3---3---3---3-------3---3---3---3---3---3-------3---|
---0-------0-------0-------0-------0-------0-------0-------------|
-0-----0-0-----0-0-----0-0-----0-0-----0-0-----0-0---------0---0-|
-------------------------------------------------------0-4-------|
Comments