Jose Gonzalez - Crosses Chords & Tabs

 

Crosses Chords & Tabs

Jose Gonzalez Chords & Tabs

Version: 1 Type: Tab 0 ratings
1 star 2 stars 3 stars 4 stars 5 stars
comments

Crosses Tab

Tabbed by: The Fisherman
Email: imsoproudofit_iputmynameonit@hotmail.com

This is such an amazing song so i thought i'd try to tab it. Its hard to tab it but i'll
jus give a general idea of what he plays. As you can hear it's all finger picked and the
strings which he doesnt play anything on are open.

Tuning: Standard
[ Tab from: http://www.guitartabs.cc/tabs/j/jose_gonzalez/crosses_tab.html ]
you'll have to figure out the picking patterns yourself, it's not hard.
e|-------------------------------------------------------------------------|
B|-------------------------------------------------------------------------|
G|--7-7-6-6-4-4-4-4-6-6-7-7-9-11-9-7-9-11-9--------------------------------|
D|------------------------------------------------repeat a few times-------|
A|-------------------------------------------------------------------------|
E|-7-7-5-5-3-3-3-3-5-5-7-7-7-7-7-7-7-7-7-----------------------------------|

after a while 
e|-------------------------------------------------------------------------|
B|-------------------------------------------------------------------------|
G|---7-4-4-4---------------------------------------------------------------|
D|-------------------------------------------------------------------------|
A|-------------------------------------------------------------------------|
E|--7-0-3-3----------------------------------------------------------------|

remember this is jus the strings played you'll have to work out the real patterns
and everything, if you haven't got the cd you can listen to the song along with
some of his others on  www.myspace.com/josegonzalezmusic

Have fun!
Comments