Jose Gonzalez - Abram Chords & Tabs

 

Abram Chords & Tabs

Jose Gonzalez Chords & Tabs

Version: 1 Type: Tab 0 ratings
1 star 2 stars 3 stars 4 stars 5 stars
comments

Abram Tab

-------------------------------------------------------------------------------
			     Abram - Jose Gonzalez
-------------------------------------------------------------------------------
Tabbed by: Jorge Jimenez

This is my first tab ever, this is just the intro. I'll tab the rest later, tell me waht 
think

Tuning:DADABe - Capo on 2nd fret
[ Tab from: http://www.guitartabs.cc/tabs/j/jose_gonzalez/abram_tab.html ]
e |----------------------------------------------------------------------------------|
B |----------0--------0--------0-------0--------0--------0--------0--------0---------|
G|-------0---------0--------0-------0--------0--------0--------0--------0------------|
D|----2----------0-------------------------4--------2--------0-----------------------|
A|------------------------4-------2-----------------------------------4--------------|
E|--2----------2--------2-------2--------2--------2--------2--------2----------------|

e|---------------------------------------------------------------------------------|
B|--------0-------0-------0--------0-----------------------------------------------|
G|------0-------0-------0--------0-------------------------------------------------|
D|----0----------------------------------------------------------------------------|
A|------------4-------2--------0---------------------------------------------------|
E|--0-------0-------0--------0-----------------------------------------------------|
Comments