Jose Andrea - El Peso Del Alma Chords & Tabs

 

El Peso Del Alma Chords & Tabs

Jose Andrea Chords & Tabs

Version: 1 Type: Tab

El Peso Del Alma Tab

   
A ki esta este solito espero y les guste
Dedicado para todos los rockeros del mundo y la banda Iliada
Thage, Eliot, Dacil, Sexy, Andi, Hapi, Tania, Julissa

˜ = Bend
^ = hammer

Intro (distorsión)

Bb   Cm7             Dm7
E---------------------------------------------|
A---------------------------------------------|
D---------------------------------------------|
G---------------------------------------------|
B---------------6--5--5^6--5--3---------------|
M-----3^5--3----------------------------------|

Bb    Cm7         Dm
E--------------------------------------------|
A--------------------------------------------|
D--------------------------------------------|
G--------------------------------------------|
B--------------------------------------------|
M------3^5--------3--------6˜5---------------|
[ Tab from: http://www.guitartabs.cc/tabs/j/jose_andrea/el_peso_del_alma_tab.html ]
Bb    Cm7           Dm
E--------------------------------------------|
A--------------------------------------------|
D--------------------------------------------|
G--------------------------------5-----------|
B----------6--5--5^6--5^6--5--3-----3--------|
E--3^5--3------------------------------------|

Bb    Cm7             Dm
E--------------------------------------------|
A--------------------------------------------|
D-------------------------------12-----------|
G---5--5—10--12--10--9--10--9----------------|
B--------------------------------------------|
E--------------------------------------------|

Bb    Cm7           Dm
E------------10—9--10------------------------|
A---10—10—8----------------------------------|
D--------------------------------------------|
G--------------------------------------------|
B--------------------------------------------|
E--------------------------------------------|

Para reclamaciones, amenazas, correcciones y pedidos son bienvenidos a mi correo 
saludos para toda la banda de Acapulco gro.