Jonny Lang - Lie To Me Chords & Tabs

 

Jonny Lang Chords & Tabs

Version: 1 Type: Tab 0 ratings
1 star 2 stars 3 stars 4 stars 5 stars
comments

Lie To Me Tab

   
Intro
Eb ---------------------|--------------------| Figure 1
Bb ---------------------|--------------------|
Gb ------4-----2--4----4|-4----4-----2--4----|
Db ---------4-----4----4|-4----4-----2--4----|
Ab -2-------------2-----|-2-------2-----2--2-|
Eb ---------------------|--------------------|

Eb|---------------------|-------------------|---------------------|
Bb|---------------------|-------------------|---------------------|
Gb|---------------------|----4--4--x--4--4--|-x--4--4--x--4--4--x-|
Db|---------------------|----4--4--x--4--4--|-x--4--4--x--4--4--x-|
Ab|-2----------2----0h2-|-2--2--2--x--2--2--|-x--2--2--x--2--2--x-|
Eb|-0----------0------0-|-0-----------------|---------------------|
                                   Lie to me,             and

                          E5
Eb ---------------------|-----------------------------|---------------------|
Bb ---------------------|-----------------------------|---------------------|
Gb (4)----------4-------|-----------------------------|---------------------|
Db (4)----------4-------|-----------------------------|---------------------|
Ab (2)----------2---0h2-|-----(2)--------------2--0---|------x--------------|
Eb -------------------0-|-----(0)-----------0--------2|---0--x--------------|
tell me everything is alright                         Lie to me,

Eb ---------------------|-------------------------|
Bb ---------------------|-------------------------|
Gb --------4---4--------|-------------------------|
Db --------4---4---6--4-|(4)-------------------0--|
Ab -----2--2---2---2--2-|(2)----------------2-----|
Eb ---------------------|-------------------------|
        and tell me that you'll stay for the night

Pre Chorus
Eb ---------------------|-------------------------|---------------------|
Bb ---------------------|-------------------------|------0--------0-----|
Gb ---------------------|-------------------------|---------0--------0--|
Db -----0----2h4--------|---------0---------------|---------------------|
Ab ----------------0h2--|(2)----------------------|---------------------|
Eb ---------------------|------------0--0-----0-2-|-3-------------------|
Tell me that you'll never leave,

Lead Guitar 1
Eb ---------------------|-------------------------|---------------------|
Bb -----------------7---|-------------------------|---------------------|
Gb ------------------7h9|(9)~~~~~~~~~~~~~~~(9)\---|---------------------|
Db --------------9------|-------------------------|---------------------|
Ab ---------------------|-------------------------|---------------------|
Eb ---------------------|-----------------------------------------------|
Im Just tryin to make believe
[ Tab from: http://www.guitartabs.cc/tabs/j/jonny_lang/lie_to_me_tab.html ]
Eb ---------------------|-------------------------|
Bb ---------------------|-------------------------|
Gb -----------3---------|-3-----------------------|
Db ------4---------4----|-------------------------|
Ab -------------------4-|-------------------------|
Eb -2-------------------|------------------2/-----|
that everything, everything you're telling me is true

Eb ---------------------|-------------------------|
Bb ---------------------|-------------------------|
Gb ------7----------7---|-------7--9--9^r---------|
Db ---9-----9----9-----9|---7h9----------7h9--9~~~|
Ab ---------------------|-------------------------|
Eb ---------------------|-------------------------|
Come on  baby, won't you just...

Chorus
Eb ------------------|----------------------|---------------------|
Bb ------------------|----------------------|---------------------|
Gb -----------------7|----------------------|---------------------|
Db -9----x--7--9----7|-9----x--7--9--7\-----|------------0--2---2-|
Ab -9----x--7--9-----|-9----x--7--9--7\-----|-2----x-----0--2---2-|
Eb -7----x--7--------|------x--7------------|-0----x--0-----------|

Lead Guitar 2
Eb ---------------------|-------------------------|---------------------|
Bb ---------------------|-------------------------|---------------------|
Gb ------------7-------7|-------------------------|-----------------7-9-|
Db -9\7--------7--9----7|-------------------------|---------------------|
Ab ---------------------|-------------------------|---------------------|
Eb ---------------------|-------------------------|---------------------|

Eb ---------------------|-------------------------|---------------------|
Bb ---------------------|-------------------------|---------------------|
Gb ---------------------|-------------7--------7--|------------------7\-|
Db ----4----4--4--4--4--|9----x-------7--9--9--7--|-9----x-----7--9--7\-|
Ab -4--4----4--4--4--4--|9----x----------9--9-----|-9----x-----7--9-----|
Eb ----2----2--2--2--2-2|7----x--7----------------|------x--7-----------|

Lead Guitar 3
Eb ---------------------|-------------------------|---------------------|
Bb ---------------------|-------------------------|---------------------|
Gb ---9~~-7-------------|----7---------------------|--------------------|
Db ---------9--7~~~~-9\-|-------------------------|---------------------|
Ab ---------------------|-------------------------|---------------------|
Eb ---------------------|-------------------------|---------------------|

Lead Guitar 4
Eb ----------------12^--|10-----------------------|
Bb ---------------------|---12~~~~~~~~~~~~~~~-12\-|
Gb ---------------------|-------------------------|
Db ---------------------|-------------------------|
Ab ---------------------|-------------------------|
Eb ---------------------|-------------------------|

Sorry Guys Im only half way through the solo right now but ill post the complete version 
this song soon

h = hammer
p = pull
x = Muffled string
^ = bend
^r = bend and release
/ = slide up
\ = slide down
Comments