Jonny Lang - Breakin Me Way Easy Chords & Tabs

 

Breakin Me Way Easy Chords & Tabs

Jonny Lang Chords & Tabs

Version: 1 Type: Tab 0 ratings
1 star 2 stars 3 stars 4 stars 5 stars
comments

Breakin Me Way Easy Tab

   
The solo on the other tabs Ive seen didnt quite cut it here.
Maybe cos Ive got the acoustic version. I dunno.
I slowed it down and got what I think is right.
I borrowed the bridge part from the other tab. It sounds right
Breakin Me
Jonny lang and Kevin Bowe

Intro riff (repeat 2x) 
  C               Am                  G     F7
  C               Am                  G     F7
Every day I see your face I wish I'd stayed don't even know what made me
Run away it's just the way I play the game

Emotional is not a word I'd use to explain myself but now I'm down I'm down
Upon my knees Oh baby please take me back


Chorus
  Dm                   C          F7
I don't want to be in love but you're makin' me
Let me up I've had enough. Girl you're breakin' me

Repeat Into Riff once
  C                Am              G     F7
Here I am just half a man standing alone feeling like I lost
my only chance at happiness when I let you go

Chorus
  Dm                   C          F7
I don't want to be alone thinkin' bout you girl
I got nothin' left to hold but my lonely world

Solo
                          vibrato      vibrato              vibrato
e---------------------------------------------------------------------
B---18/16/15-12h13b14b13----------------------------------------------
G-----------------------10-9-10/9---------------10--------------------
D-------------------------------10-----10-12h14---14p12-10---10h12-10-
A---------------------------------10-12-------------------------------
E---------------------------------------------------------------------
[ Tab from: http://www.guitartabs.cc/tabs/j/jonny_lang/breakin_me_way_easy_tab.html ]
e-----------------------------------------------------|
B-----------------------------------------------------|
G------------------------------12---10----------------|
D------10-12-10h12-------------12h14--12p10-h12p10----|
A-10h14-----------x----10-14/15-----------------------|
E-----------------10h12-------------------------------|


Bridge

e-------7---------7---------7-------------|
b-----5---------5---------5-----------3---|
g---5---------5---------5-----------0---0-|
d-7-------7-6-------6-5-------5\0h4-------|
a-----------------------------------------|
E-----------------------------------------|
    ....First Time....(etc)
e-------7---------7---------7---------------------(1/3)--|
b-----5---------5---------5-----------------------(1/3)--|
g---5---------5---------5--------------------------------|
d-7-------7-6-------6-5-------5\0-0----------------------|
a-----------------------------------5\3/8----------------|
E------------------------------------------1/5h8-5\3-----|

The first time my heart was ever touched
Was the day I lost your love
I can feel it in my flesh and blood
My soul can only take so much

(After the Solo the first two chords use Barre forms:)
    C*               Am*                        G  F7
So there it is. Why can't you give us one more try you and I could find
A way to live if you let me in one more time

Chorus
  Dm                  C                 F7
I know you lost your faith in me but I still believe
Can I make you understand, can I make you see
I am desperate for your love and it's breakin' me
   C     Am     G     F7
                It's breakin' me

     C*            Am*          G             F7                                          
-------------  -----------  -----------  -----------                                               
8 10 10 9 8 8  5 7 7 5 5 5  3 2 0 0 3 3  1 3 1 2 1 1 

    C          
e---------|
B-0h1-1---|
G-----0---|
D---------|
A-3---3---|
E---------| Use this C for the first part of the song



   Am    
e--------|
B--3p1-1-|
G--2---2-|
D--------|
A--0---0-|
E--------| Use this Am for the first part of the song, with the hammer on thing.                                                         			       
Comments