Jonathan Adams - Screaming Inside Chords & Tabs

 

Screaming Inside Chords & Tabs

Jonathan Adams Chords & Tabs

Version: 1 Type: Bass Tab

Screaming Inside Bass Tab

Intro
					X1
G--------------------------------------|
D--------------------------------------|
A-3-5-1-6-----2-2-2-2-2--4-4-4---------|
D---------765-----------2-2-2-22-2p0---|

Verse
					X2
G--------------------------------------|
D-555h666/999--------------------------|
A-------------8-88---8p6/3---232-------|
D--------------------------23---32~----|

Chorus
					X1
G--------------------------------------|
D--------------------------------------|
A----77~-----33~-----77~-----33~-------|
D-777---7/333---3/777---7/333---3-5-7--|
[ Tab from: http://www.guitartabs.cc/tabs/j/jonathan_adams/screaming_inside_btab.html ]
Fill
					X2
G--------------------------------------|
D--------------------------------------|
A--------------------------------------|
D-3-5-7~-7-5-3~-3-5~-5-2~--------------|

Break Down
					X3
G-----3~----5h6p5p0--------------------|
D--------------------------------------|
A-0000--0000---------------------------|
D--------------------------------------|

Chorus
					X1
G--------------------------------------|
D--------------------------------------|
A----77~-----33~-----77~-----33~-------|
D-777---7/333---3/777---7/333---3-5-7--|

Outro
					X1
G--------------------------------------|
D--------------------------------------|
A--------------------------------------|
D-3-5-7~-7-5-3~-3-5~-5-2~--------------|