Jonah 33 - The Diffrence Chords & Tabs

 

The Diffrence Chords & Tabs

Jonah 33 Chords & Tabs

Version: 1 Type: Tab 0 ratings
1 star 2 stars 3 stars 4 stars 5 stars
comments

The Diffrence Tab

Jonah 33- The Difference
2003 album Jonah 33-Tabed by scabE 
2 part Intro: Standard Tunage
Gtr. 1:                      (somewhat broken between the two)
e|/7----------|/7----------|D-A--Bb-----|F------C--------|Bb--|
B|--/5h7\-----|--/5h7\-----|------------|----------------|----|
G|-------/4(r)|-------/4(r)|7-2223-333-3|-------5-5-5555-|-3--|
D|------------|------------|7-2223-333-3|3--3---5-5-5555-|-3--|
A|------------|------------|5-0001-111-1|3—-3---3-3-3333-|-1--|
E|------------|------------|------------|1--1------------|----|
Gtr. 2:(Rhythm tapping)
|-------------|------------|D-A--Bb-----|F-D----C--------|Bb--|
|-------------|33-333-333-3|------------|----------------|----|
|444-444-444 4|------------|7-2223-333-3|--777--5-5-5555-|-3--|
|-------------|------------|7-2223-333-3|3-777--5-5-5555-|-3--|
|-------------|------------|5-0001-111-1|3—555--3-3-3333-|-1--|
|-------------|------------|------------|1---------------|----|
Verse 1: Bass Line 1st half(Sounds like this)
|D--------------|F-----C----------|D---------------|C----Bb------|
|---------------|-----------------|----------------|-------------|
|---------------|-----------------|----------------|-------------|
|---------------|-----------------|----------------|-------------|
|5-5-5-5-5-5-5-5|8-8-8-3-3-3-3-3-3|5-5-5-5-5-5-5-5-|3-3-3-1-1-1-1|
|---------------|-----------------|----------------|-------------|

Gtr enters: 
|--------|
|--------|
|33--33--|
|33--33--|
|11--11--|
|--------|
Verse 1: 
|--------------------------------------------|
|-5-5h6-6-9-9\5-5h6-5-5h6-6-5-3--------------|
|--------------------------------------------|
|--------------------------------------------|
|--------------------------------------------|
|--------------------------------------------|
Pre-Chorus:(How can they...)Bass only, similar to rhythm tap on intro
 

[ Tab from: http://www.guitartabs.cc/tabs/j/jonah_33/the_diffrence_tab.html ]
 Chorus:
Gtr 1:Riff
|------------|----------------|------|----------------|
|------------|----------------|------|----------------|
|9-2223-333-3|-------5-5-5555-|-3-3-3|-------7-7-7777-|
|9-2223-333-3|3--3---5-5-5555-|-3-3-3|3--3---7-7-7777-|
|5-0001-111-1|3—-3---3-3-3333-|-1-1-1|3--3---5-5-5555-|
|------------|1--1------------|------|1--1------------|
Gtr. 2:
|------------|----------------|------|----------------|
|------------|----------------|------|----------------|
|7-2223-333-3|--777--5-5-5555-|-3-3-3|--555--5-5-5555-|
|7-2223-333-3|3-777--5-5-5555-|-3-3-3|3-777--5-5-5555-|
|5-0001-111-1|3—555--3-3-3333-|-1-1-1|3—555--3-3-3333-|
|------------|1---------------|------|1---------------| (2x)  

Verse 2: New riff here(all together now)
|--------------------------------------------|
|-555666999955555555666555333----------------|
|--------------------------------------------|
|--------------------------------------------|
|--------------------------------------------|
|--------------------------------------------|

Pre-Chorus:

Chorus:

Bridge:

Riff 1: with a Wah 
e|---|---|
B|---|---| stuum these for a while
G|---|---|
D|-7-|-7-|
A|-5-|-5-|
E|-3-|-6-|
  I tell you, Repentance, Repent from all this filthy sin
Riff 2: pretty much A Bb...F

Solo: play Chorus on the rhythm while lead plays this
|-------------------|-------------------|
|0-5p0-5p0-5p0-5p0-5|0 5p0-5p0-7p0-7p0-7|
|-------------------|-------------------|
|-------------------|-------------------|
|-------------------|-------------------|
|-------------------|-------------------|

|-------------------|-------------------|
|0-5p0-5p0-5p0-5p0-5|5p0-5p0-888-7-5-7p5|Hold it 
|-------------------|-------------------|  for a 
|-------------------|-------------------|    while
|-------------------|-------------------|
|-------------------|-------------------|

Chorus: plus this (the last one)
|------------------------------------------------|
|------------------------------------------------|
|-111111--1212121299--666777--111111--1212121299-|
|-111111--1212121299--666777--111111--1212121299-|
|-9-9-9---1010101077—-444555--9-9-9---1010101077-|(2x)
|------------------------------------------------|

Verse 2: just 1st half

Comments