Jonah33 - Working Man Hands Chords & Tabs

 

Working Man Hands Chords & Tabs

Jonah33 Chords & Tabs

Version: 1 Type: Chords 0 ratings
1 star 2 stars 3 stars 4 stars 5 stars
comments

Working Man Hands Chords

   
Ah, I just needed to tab this song.
This is just for the chords, sorry.
The other tabs sound nothing like it or are a little slapdash. SO i just tried to figure 
out.


For those who have been waiting for this tab, i hope you'll enjoy !!!!


-----------------------------
Jonah33 - Working Man Hands
-----------------------------

STANDARD TUNING [EBGDAe]

				[Intro]

   E		Bm		A          (X2)

E|-0-------------2--------------0--------------------------------------------------|
B|-0-------------3--------------2--------------------------------------------------|
G|-1-------------4--------------2--------------------------------------------------|
D|-2-------------4--------------2--------------------------------------------------|
A|-2-------------2--------------0--------------------------------------------------|
E|-0-------------2--------------0--------------------------------------------------|

				[Verse 1]

   E	  Bm		   A

I guess silence is not an option at this stage

   E      Bm		   A
I've been comfortable too long now, turn the page

   F#sus4	Absus4	        A5           Esus4

E|-0-------------0--------------0-------------0----------------------------------|
B|-0-------------0--------------0-------------0----------------------------------|
G|-4-------------6--------------2-------------9----------------------------------|
D|-4-------------6--------------2-------------9----------------------------------|
A|-2-------------4--------------0-------------0----------------------------------|
E|-0----------------------------0-------------0----------------------------------|


F#sus4     Absus4	     A5

I see shadows all around me

F#sus4     Absus4            Esus4

But to me it's proof of Your light

				[Chorus]

   C#m	       F#sus4 		w5  		A5
[ Tab from: http://www.guitartabs.cc/tabs/j/jonah33/working_man_hands_crd.html ]
E|-0-------------0--------------0----------------0-------------------------------|
B|-5-------------0--------------0----------------0-------------------------------|
G|-6-------------4--------------4----------------2-------------------------------|
D|-6-------------4--------------2----------------2-------------------------------|
A|-4-------------2--------------0----------------0-------------------------------|
E|-0-------------0--------------4----------------0-------------------------------|


C#m	    F#sus4          w5		A5

Show yourself to me, so I can show you to them


C#m	    F#sus4          w5		A5
Give me what it takes to let me go


Abaug5sus4  	 A              E		F#sus4		w5     Esus4

E|-4-------------0--------------0----------------0---------------0------0----------|
B|-5-------------2--------------0----------------0---------------0------0----------|
G|-6-------------2--------------1----------------4---------------4------9----------|
D|-6-------------2--------------2----------------4---------------2------9----------|
A|-4-------------0--------------2----------------2---------------0------0----------|
E|-4-------------0--------------0----------------0---------------4------0----------|

Abaug5sus4       		A

There's a world out there that's dyin'

E		F#sus4

Father please forgive them

w5			w5

For they know not what they do

Esus4			F#sus4

Father won't you show me how


To have working man hands

|
|_->

Emaj7sus4      Asus2	     Asus2''   [X2]

E|-0-------------0--------------0----------------|
B|-4-------------X--------------0----------------|
G|-4-------------4--------------4----------------|
D|-2-------------2--------------2----------------|
A|-0-------------0--------------0----------------|
E|-0-------------0--------------0----------------|


[It's the same]

You said if you love me you'll obey me, I've wondered why
You gave Your life for those around me, so should I
God forbid that I should stand before You
On that day, with unblemished hands

Show yourself to me, so I can show you to them
Give me what it takes to let me go...
There's a world out there that's dyin'


[just try to figure out the pattern yourself, everyone has their own way to play this song]


[For the small solo with the electric guitar, play the intro. ]


[For the Outro, it's easy, play the end of the chorus :]

Emaj7sus4      Asus2	     Asus2''   [X4]

E|-0-------------0--------------0----------------|
B|-4-------------X--------------0----------------|
G|-4-------------4--------------4----------------|
D|-2-------------2--------------2----------------|
A|-0-------------0--------------0----------------|
E|-0-------------0--------------0----------------|


Enjoy !!

hope to find another tab with the guitar 2.
Rate my tab.
Comments