Jokke Og Valentinerene - To Fulle Menn Chords & Tabs

 

To Fulle Menn Chords & Tabs

Jokke Og Valentinerene Chords & Tabs

Version: 2 Type: Tab 0 ratings
1 star 2 stars 3 stars 4 stars 5 stars
comments

To Fulle Menn Tab

   
Jokke og valentinerne - To fulle menn
=====================================

Band : Jokke og valentinerne
Album: To fulle menn
Music: Joachim Nielsen
Text : Joachim Nielsen
Tab  : Thomas Teigland, thomas_teigland@yahoo.com

My first Jokke tab. Enjoy :-)
--- 
Guitar1 plays the chords.
Guitar2 plays as tabbed.

Verse:

D - C - G - D - A (x4)

Chorus:

Bm - A - G - D - A (x2)
Bm - A - G - Bm

Solo:
(Guitar1 plays Verse while Guitar2 plays solo

e-------------------------------------------10----
B-----------6----------6-----------10-13-10-------
G-------5h7---7----5h7---7---10/12----------------
D---5h7-------------------------------------------
A-------------------------------------------------
E-------------------------------------------------
[ Tab from: http://www.guitartabs.cc/tabs/j/jokke_og_valentinerene/to_fulle_menn_tab_ver_2.html ]
e---10-10----10----10h13-10-----------------------
B---------10----10----------10h13-10--------------
G-------------------------------------------------
D-------------------------------------------------
A-------------------------------------------------
E-------------------------------------------------

e-------------------------------------------------
B---------------------10--------------------------
G---12-12-12-10h12p10-----------------------------
D-------------------------------------------------
A-------------------------------------------------
E-------------------------------------------------

e---------------------------10----12^13-12^13-10--
B---10h13-10-13-10-13-10-13----10-----------------
G-------------------------------------------------
D-------------------------------------------------
A-------------------------------------------------
E-------------------------------------------------

e--8/10-10-10-------------------------------------
B--8/10-------8----8------8-10-10-10-8----8-------
G---------------10-----10--------------10---7-----
D-------------------------------------------------
A-------------------------------------------------
E-------------------------------------------------


The order of the song is like follows:

Verse
Chorus
Verse
Chorus
Solo
Verse
Chorus x2

Thats it, enjoy!

- EOF -
Comments