Jojo - Too Little Too Late Chords & Tabs

 

Jojo Chords & Tabs

Version: 1 Type: Tab 0 ratings
1 star 2 stars 3 stars 4 stars 5 stars
comments

Too Little Too Late Tab

   
-------------------------------------------------------------------------------
			     Too Little Too Late - JoJo
-------------------------------------------------------------------------------

Tabbed by: Brandon Fukuda AKA dreamerscout
Email: fukuda@usc.edu

This is my first tab, so please bear with me.  I don't normally listen to pop
music, but I heard this song on the radio and I really liked it.  So I decided to tab it 
in case anyone else enjoys it as much as I do.  It's a pretty simple song, but quite 
nonetheless.  Feel free to add your own embellishments as necessary :).

Tuning: Standard

Chords: Bm, E, A
Variations: Asus2, Asus4

INTRO (x1 without any lyrics)
VERSE 1 (x2)

e|-------------------------------------------------------------------|
B|------2--------0--------0------------------------------------------|
G|-------------2--------2-----2h4-4s6-2--2h4-------------------------|
D|----2--------------------------------------------------------------|
A|-0-----------------------------------------------------------------|
E|----------2--------0-----------------------------------------------|

      Come     stay     you   boy it don't feel right
      You      say      boy   beggin' don't fool me
e|-----------------------------0-------------------------------------|
B|------2--------0---------------------------------------------------|
G|-------------2----------1----------2-1---1-------------------------|
D|----2-----------------2----2-----2-----2---------------------------|
A|-0-----------------------------------------------------------------|
E|----------2--------0-----------------------------------------------|
      What     me            You know it's just too little too late
      Because  it's          You know it's just too little too late

VERSE 1 lyrics
Come with me, stay the night,
You say the words, but boy it don't feel right,
What do you expect me to say (You know it's just too little too late).
You take my hand, and you say you've changed,
But boy you know your beggin' don't fool me,
Because to you, it's just a game (You know it's just too little too late).

-PRECHORUS 1-

   Asus2
So let me on down,
      E
Cause time has made me strong, I'm startin' to move on,
    Asus2
I'm gonna say this now,
     E
Your chance has come and gone.
               Bm
And you know...

-CHORUS 1-
              A
It's just too little too late,
  Bm               E
A little too wrong,
                 Bm
And I can't wait,
             A                       Bm       E
Boy you know all the right things to say (You know it's just too little too
Bm
late.)
            A
You say you dream of my face,
    Bm                E
But you don't like me,
                        Bm
You just like the chase.
               A                 Bm        E
To be real, it doesn't matter anyway, (You know it's just too little too late.)

INTRO  (x1 without any lyrics)
VERSE 2 (x1)
[ Tab from: http://www.guitartabs.cc/tabs/j/jojo/too_little_too_late_tab.html ]
e|-------------------------------------------------------------------|
B|------2--------0--------0------------------------------------------|
G|-------------2--------2-----2h4-4s6-2--2h4-------------------------|
D|----2--------------------------------------------------------------|
A|-0-----------------------------------------------------------------|
E|----------2--------0-----------------------------------------------|

      I        and      gave  but it wasn't enough

e|-----------------------------0-------------------------------------|
B|------2--------0---------------------------------------------------|
G|-------------2----------1----------2-1---1-------------------------|
D|----2-----------------2----2-----2-----2---------------------------|
A|-0-----------------------------------------------------------------|
E|----------2--------0-----------------------------------------------|
      And      communicate   You know it's just too little too late

VERSE 2 lyrics
I was young, and in love,
I gave you everything, but it wasn't enough.
And now you wanna communicate.

-PRECHORUS 2-
   Asus2
Go find someone else,
   E
In lettin' you go, I'm lovin' myself,
    Asus2
You got a problem,
    E
But don't come askin' me for help.
                Bm
Cause ya know...

-CHORUS 2-
              A
It's just too little too late,
  Bm               E
A little too wrong,
                 Bm
And I can't wait,
             A                       Bm       E
Boy you know all the right things to say (You know it's just too little too
Bm
late.)
            A
You say you dream of my face,
    Bm                E
But you don't like me,
                        Bm
You just like the chase.
               A                 Bm        E
To be real, it doesn't matter anyway, (You know it's just too little too late.)

-BRIDGE-

Bm              A
I can love with all of my heart baby,
E
I know I have so much to give (I have so much to give.)
Bm                      A
With a player like you, I don't have a prayer,
Asus4             Asus2
That's the way to live,

Yeah, oh.

It's just too little, too late.

N.C.
Yeah!

-CHORUS 3-
              A
It's just too little too late (too little),
  Bm               E
A little too wrong,
                 Bm
And I can't wait,
             A                       Bm       E
Boy you know all the right things to say (You know it's just too little too
Bm
late.)
            A
You say you dream of my face,
    Bm                E
But you don't like me,
                        Bm
You just like the chase.
               A                 Bm        E
To be real, it doesn't matter anyway, (You know it's just too little too late.)

Repeat Bm, A, Bm, E until end.
Comments