Jojo - Leave Get Out Chords & Tabs

 

Jojo Chords & Tabs

Version: 4 Type: Tab 0 ratings
1 star 2 stars 3 stars 4 stars 5 stars
comments

Leave Get Out Tab

Tabbed by Daniel Chae. 8-3-04.
I thought guitar part for this "Pop" song was pretty cool. So here is the tab!!

Intro: 
E|----------------------------|----------------------------|
B|-----------11-10-------8-6--|--------6-5--3------1-------|
G|--------10-----------5------|------5----------------3----|
D|-----12------------7--------|----5--------3--------------|
A|--10-------------5----------|--3----------1--------------|
E|----------------------------|----------------------------| (x2)

(This is played throughout the whole song. Not kidding.)

Verse:
E|----------------------------|----------------------------|
B|-----------11-10-------8-6--|--------6-5--3------1-------|
G|--------10-----------5------|------5----------------3----|
D|-----12------------7--------|----5--------3--------------|
A|--10-------------5----------|--3----------1--------------|
E|----------------------------|----------------------------| (x4)

Pre-Chorus:
E|----------------------------|----------------------------|
B|-----------11-10-------8-6--|--------6-5--3------1-------|
G|--------10-----------5------|------5----------------3----|
D|-----12------------7--------|----5--------3--------------|
A|--10-------------5----------|--3----------1--------------|
E|----------------------------|----------------------------| (x2)

Chorus:
E|----------------------------|----------------------------|
B|-----------11-10-------8-6--|--------6-5--3------1-------|
G|--------10-----------5------|------5----------------3----|
D|-----12------------7--------|----5--------3--------------|
A|--10-------------5----------|--3----------1--------------|
E|----------------------------|----------------------------| (x4)

Verse 2
Pre-Chorus
Chorus

Here is the Bridge
[ Tab from: http://www.guitartabs.cc/tabs/j/jojo/leave_get_out_tab_ver_4.html ]
E|----------------------------|----------------------------|
B|--6-------------------------|--8-------------------------|
G|----------------------------|----------------------------|
D|--6-------------------------|--8-------------------------|
A|--4-------------------------|--6-------------------------|
E|----------------------------|----------------------------| 

(these are chords, just play throughout the measure [four beats])
E|----------------------------|----------------------------|
B|--10------------------------|--10--------------------8---|
G|----------------------------|----------------------------|
D|--10------------------------|--10--------------------8---|
A|--8-------------------------|--8---------------------6---|
E|----------------------------|----------------------------| 

E|----------------------------|----------------------------|
B|--6-------------------------|--8-------------------------|
G|----------------------------|----------------------------|
D|--6-------------------------|--8-------------------------|
A|--4-------------------------|--6-------------------------|
E|----------------------------|----------------------------| 

E|----------------------------|----------------------------|
B|--3-------------------------|--5-------------------------|
G|----------------------------|----------------------------|
D|--3-------------------------|--5-------------------------|
A|--1-------------------------|--3-------------------------|
E|----------------------------|----------------------------| 

E|----------------------------|----------------------------|
B|-----------11-10-------8-6--|--------6-5--3------1-------|
G|--------10-----------5------|------5----------------3----|
D|-----12------------7--------|----5--------3--------------|
A|--10-------------5----------|--3----------1--------------|
E|----------------------------|----------------------------|

then Chorus x3

Order: 
Intro
Verse 1
Pre-Chorus
Chorus
Verse 2
Pre-Chorus
Chorus
Bridge
Chorus x3


Have fun.
Comments