Join The Club - Hayaang Maidlip Chords & Tabs

 

Hayaang Maidlip Chords & Tabs

Join The Club Chords & Tabs

Version: 2 Type: Tab

Hayaang Maidlip Tab

   
LSM......... Lourdesian po ako.. haha
para sa laht ng fans ng join the club.. rate nyo nlang kung tama..para sa kn xiempre 
toh.. cge ingatz,,

INTrO

B - Bb - B - F# - B - Bb - B - G# - B - Bb - B - E - Eb - G# - Eb -B
*** bilisan nyo lng yng pag switch s B nd Bb,, Ibabalik lng***

VERSE
B - F# - G# - E
NOTE: HIgher note ng E yng gamitn,,, ** power chrd lhat ng chordz**

Pre:
Eb - G# - E - F#

LEAD B4 chorus
---------------------------------------------------------------|
---------------------------------------------------------------|
---8--9--11--9--8--9-------------------------------------------|
----------------------9----------------------------------------|
---------------------------------------------------------------|
---------------------------------------------------------------|

ChoRus
**Tulad lang ng verse**
[ Tab from: http://www.guitartabs.cc/tabs/j/join_the_club/hayaang_maidlip_tab_ver_2.html ]
YNG sa "wag mong isipan na....."
PRe chorus na chrds yng gagamtn

YNg lead dn..

-----6h7p6-----------------------------------|
------------7--4-(2x)------------------------|
---------------------------------------------|
---------------------------------------------|
---------------------------------------------|
---------------------------------------------|
"gustong gsto ko lng na...."
E - F# - E tapos repeat Intro....

B4 2nd verse strum lng sa B
taos yng lead ito..

--------------------------------------------|
--------------------------------------------|
--------------------------------------------|
----4--4--4--2--1--2------------------------|
--------------------------------------------|
--------------------------------------------|
2nd VErse.
pre
chorus
Bridge. (kahit na anong .......)
G# - F# - E  (pault ult lang.. timng nalang)..


BumPy john para sayo toh tsong!!!... haha... i would lke to tnk a few frndz.. nakz,,,, 
cla stIv- o, franky, medz, ketz, bumpy.. at kng cnocno sa lupalop ng mundo.... sana 
nyo tng tab ko... ngatz!!