Join The Club - Emotional Overdose Chords & Tabs

 

Emotional Overdose Chords & Tabs

Join The Club Chords & Tabs

Version: 1 Type: Tab

Emotional Overdose Tab

   
Tuning: STANDARD

Intro:

e|----------------------------------------------|
B|---10-9-------10-9----------------------------|
G|--------7----------7s9-----9-8-------9-8------|
D|--------------------------------6---------6s9-|
A|----------------------------------------------|
E|----------------------------------------------|

e|----------------------------------------------|
B|---10-9-------10-9----------------------------|
G|--------7----------7s9-----9-8----------------|
D|-------------------------------6---4s6-4------|
A|----------------------------------------------|
E|----------------------------------------------|

verse:

    
F#m
Wala na ring kwenta
B            E
Kung sasabihin pa
F#m
Sa iyo ang damdamin
B            E
Damdaming pagsinta
[ Tab from: http://www.guitartabs.cc/tabs/j/join_the_club/emotional_overdose_tab.html ]
Chorus:
A
Hangga't maaari
                    E
Ay limutin na ang sanadali
A
Hangga't maaari
                     E
Ay limutin na...limutin ka na

(repeat intro)

verse2:
F#m
Ano ang saysay pa
A               E
Ng suyuin kang muli
F#m
Di na mababalik ang iyong
A                E
Damdamin pang muli

(repeat chorus)

after chorus:

Ab         E
          aaah..(3x)
A        
ahh... 
B      C     D
ahhh..ahhh..haa...

Bridge:
A                                     E
Ang nais ko lamang ay matapos na ang sandali
A
At ng mawala na
                              E
Ang sakit na dulot nitong damdamin
(repeat chorus)

(repeat intro)


sa mga tga-rakista.com!!! HI!!

pra kina Barbakuli..BlueNose..Toretot..

-POLARIZ.