Johnston Jim - Big Evil Chords & Tabs

 

Big Evil Chords & Tabs

Johnston Jim Chords & Tabs

Version: 1 Type: Tab 1 rating
1 star 2 stars 3 stars 4 stars 5 stars
comments

Big Evil Tab

                          Jim Johnston - Big Evil (WWE Undertaker)                                     
                                        by digiti
                                                              
E||------|------|---------------------|----------------------|
B||------|------|---------------------|----------------------|
G||------|------|--2--4----4----------|----------2-----------|
D||------|------|--2--4----4----------|--2--4----2----2------|
A||------|------|--0--2----2----------|--2--4----0----2------|
E||------|------|---------------------|--0--2---------0------|


                                                                 
---------------------|----------------------|-------------------|
---------------------|----------------------|-------------------|
--2--4----4----------|----------2-----------|-------------------|
--2--4----4----------|--2--4----2----2------|--2----------------|
--0--2----2----------|--2--4----0----2------|--2----------------|
---------------------|--0--2---------0------|--0----------------|


                                                                
------------------|---------------------|----------------------|
------------------|---------------------|----------------------|
------------------|--2--4----4----------|----------2-----------|
------------------|--2--4----4----------|--2--4----2----2------|
------------------|--0--2----2----------|--2--4----0----2------|
------------------|---------------------|--0--2---------0------|

[ Tab from: http://www.guitartabs.cc/tabs/j/johnston_jim/big_evil_tab.html ]
                                                                 
---------------------|----------------------|-------------------|
---------------------|----------------------|-------------------|
--2--4----4----------|----------2-----------|-------------------|
--2--4----4----------|--2--4----2----2------|--2----------------|
--0--2----2----------|--2--4----0----2------|--2----------------|
---------------------|--0--2---------0------|--0----------------|


                                                         
---------------------------||---------------------------|
---------------------------||---------------------------|
---------------------------||*--2--4--4--4--2--4--4--4--|
--2--2--2--2--2-----2--2-2-||*--2--4--4--4--2--4--4--4--|
--2--2--2--2--2--2--2--2-2-||---0--2--2--2--0--2--2--2--|
--0--0--0--0--0--0--0--0-0-||---------------------------|


                                                      
--------------------------|--------------------------|
--------------------------|--------------------------|
--2--4--4--4--2--2--------|--2--4--4--4--2--4--4--4--|
--2--4--4--4--2--2--2--2--|--2--4--4--4--2--4--4--4--|
--0--2--2--2--0--0--2--2--|--0--2--2--2--0--2--2--2--|
--------------------0--0--|--------------------------|


                                                                        
-------------------------||---------------------|----------------------|
-------------------------||---------------------|----------------------|
--2--4--4--4-------2----*||--2--4----4----------|----------2-----------|
--2--4--4--4--4----2----*||--2--4----4----------|--2--4----2----2------|
--0--2--2--2--4----0-----||--0--2----2----------|--2--4----0----2------|
--------------2----------||---------------------|--0--2---------0------|


                                                                   
---------------------|----------------------|---------------------|
---------------------|----------------------|---------------------|
--2--4----4----------|----------2-----------|--2--4----4----------|
--2--4----4----------|--2--4----2----2------|--2--4----4----------|
--0--2----2----------|--2--4----0----2------|--0--2----2----------|
---------------------|--0--2---------0------|---------------------|


                        
----------------------||
----------------------||
----------2-----------||
--2--4----2----2------||
--2--4----0----2------||
--0--2---------0------||
Comments