Johnson Jack - Wasting Time Chords & Tabs

 

Wasting Time Chords & Tabs

Johnson Jack Chords & Tabs

Version: 1 Type: Tab 0 ratings
1 star 2 stars 3 stars 4 stars 5 stars
comments

Wasting Time Tab

   
Jack Johnson
-Wasting Time


Chords for the song are D A Em A, once you have the rhythm, you're cash money.


Here is riff he used in the intro
He also uses it throughout the song, so pay attention!  just muck around and get the sound
its rhythm guitar, you gotta get a feel
   D    D              A 

e----------------------5-------------------------------5----
B----------------------5--------7-h8---7-h8-7-7--------5--------
G--7----7----7-7-------6--------7-h9---7-h9-7-7--------6-------
D--7-h9-7-h9-7-7-------7--------7-h9---7-h9-7-7-7------7--------------
A----------------7-5---7---------------------------7-5-7------
E-------------------5--5-------------------------------5--


D    A                   Em          A
And I'm just a waste of her energy
And she's just a waste of my time

So why don't we get together
and we could waste everything tonight
yeah we could waste everything tonight
yeah, ohhh

And I don't pretend to know what you know, nah nah
so please don't pretend to know whats on my mind
we already know everything that everybody knows
we would have nothing to learn tonight
and we would have nothing to show tonight
yeah, ohh

(this part is G chord to A chord)

and everybody thinks that everybody knows about
everybody else but nobody knows
anything about themselves
cause they're all worried about everybody else

[ Tab from: http://www.guitartabs.cc/tabs/j/johnson_jack/wasting_time_tab.html ]
fill to solo  solo
e--------------------------------------
b--------------------------------------
g------7--------------------------------
d----7---9-7------------------------------
a-/9-------------------------------------
E--------------------------------------

solo
e-----------------------------------------------------------------
b-----------------------------------------------------------------
g-7h9--7h9--7-7---------12-12----11-11-9-9---7h9p7----------------
d---------------9-9-7------------------------------9--7h9p7-------  this section twice through
a-----------------------------------------------------------9-----
E-------------------------------------------------------------10--



and loves just a waste of our energy
and lifes just a waste of our time
so why don't we get together
and we could waste everything tonight
and we could waste
and we could waste it all 
tonight

(G chord to an A chord)

and everybody thinks that everybody knows about
everybody else but nobody knows
anything about themselves
cause they're all worried about everybody else
yeah

solo
e-----------------------------------------------------------------
b-----------------------------------------------------------------
g-7h9--7h9--7-7---------12-12----11-11-9-9---7h9p7----------------
d---------------9-9-7------------------------------9--7h9p7-------  this section twice through 
a-----------------------------------------------------------9-----
E-------------------------------------------------------------10--

End on any D Chord
Comments