Johnson Jack - Upside Down Chords & Tabs

 

Upside Down Chords & Tabs

Johnson Jack Chords & Tabs

Version: 1 Type: Tab 2 ratings
1 star 2 stars 3 stars 4 stars 5 stars
comments

Upside Down Tab

   
Jack Johnson - Upside Down
by: gonza
gserradasduarte@hotmail.com

Vereses
      E        F#m        E        F#m
|-----0---------2---------0---------2----------|
|-----0---------2---------0---------2----------|
|-----1---------2---------1---------2----------|
|-----2---------4---------2---------4----------|
|-----2---------4---------2---------4----------|
|-----0---------2---------0---------2----------|
[ Tab from: http://www.guitartabs.cc/tabs/j/johnson_jack/upside_down_tab.html ]
Chorus
Upside down...
     E        F#m         A          B
|----0---------2----------5----------7--------|
|----0---------2----------5----------7--------|
|----1---------2----------6----------8--------|
|----2---------4----------7----------9--------|
|----2---------4----------7----------9--------|
|----0---------2----------5----------7--------|

I love this song... More than I love to hear it, I love to play it.
This is the perfect version.Check out my other tabs.
Gonza
Comments