Johnson Jack - Thicker Than Water Chords & Tabs

 

Thicker Than Water Chords & Tabs

Johnson Jack Chords & Tabs

Version: 1 Type: Tab 0 ratings
1 star 2 stars 3 stars 4 stars 5 stars
comments

Thicker Than Water Tab

Thicker Than Water Jam 
Jack Johnson

e-----------0---2---4-------4---5---0---0---2--
B-----------0---4---5-------4---5---0---2---4--
G-----------1---2---4-------5---6---1---0---2--
D------2-4--2---4---6-------4---5---2---2---4--
A--2/4------2---2---4-------6---7---2---0---2--
E-----------0---2---4-------4---5---0---0---2-- 

e|----------------------------------------------------------------------
B|-------------------------------9-9-9-9-9------------------------------
G|-9-9h11p9---9--9h11-------9-11-----------9h11p9----9----9-------------
D|----------9----------9-11-----------------------11----11-11-9---------
A|----------------------------------------------------------------------
E|----------------------------------------------------------------------

e|-9-12-9---------------12/9-9-9-7---7/9-9-9--9--9/12-12-12--12---------
B|--------12-9-7-5/7----12/9-9-9-7---7/9-9-9--9--9/12-12-12--12---------
G|----------------------------------------------------------------------
D|----------------------------------------------------------------------
A|----------------------------------------------------------------------
E|----------------------------------------------------------------------
[ Tab from: http://www.guitartabs.cc/tabs/j/johnson_jack/thicker_than_water_tab.html ]
e|-12/9-9-9--9--9-7--7-7/9-9-9/12-12-12/14------------------------------
B|-12/9-9-9--9--9-7--7-7/9-9-9/12-12-12/14------------------------------
G|----------------------------------------------------------------------
D|----------------------------------------------------------------------
A|----------------------------------------------------------------------
E|----------------------------------------------------------------------

e|-7h9p7----------------------------------------------------------------
B|------9-7h9p7---------------------------------------------------------
G|-------------9-9h11p9--9--------------------------------9-------------
D|---------------------11---9---------------------9-11-11---11----------
A|----------------------------11-9-7---7--7--9/11-----------------------
E|-----------------------------------9----------------------------------

e|-------------------------9-7---9-9------------------------------------
B|---------------------7/9-----9----------------------------------------
G|---------13~-11~-9----------------------9------9------9------9--------
D|----9-11---------------------------9h11---9h11---9h11---9h11----------
A|-11-------------------------------------------------------------------
E|----------------------------------------------------------------------

e|---------------------------------------------12-9------9/7--7/9--9/12-
B|--------------------------------------------------12-9-9/7--7/9--9/12-
G|------9------9------9----9-11-13~-11p9--9-----------------------------
D|-9h11---9h11---9h11---11--------------11------------------------------
A|----------------------------------------------------------------------
E|----------------------------------------------------------------------
 

JMK1205
Comments