Johnson Jack - Symbols In My Driveway Chords & Tabs

 

Symbols In My Driveway Chords & Tabs

Johnson Jack Chords & Tabs

Version: 1 Type: Tab 0 ratings
1 star 2 stars 3 stars 4 stars 5 stars
comments

Symbols In My Driveway Tab

e--------------------------------------------------------------------
b--------------------------------------------------------------------
d--------------------------------------------------------------------
g-------------------------------------9-9-9-11--9-9-9-11--9-9-9-11---
a-7-7-7-9-7-7-7-9-7-7-7-9-7-7-7-9-----7-7-7-7---7-7-7-7---7-7-7-7----
E-5-5-5-5-5-5-5-5-5-5-5-5-5-5-5-5--0---------------------------------

e---------------------------------------------------------
b---------------------------------------------------------
d---------------------------------------------------------
g-9-9-9-11--9-9-8-8--7-7-7-9-7-7-7-9-7-7-7-9-7-7-7-9------KEEP REPEATING
a-7-7-7-7---7-7-6-6--5-5-5-5-5-5-5-5-5-5-5-5-5-5-5-5--0---
E---------------------------------------------------------

beautiful its right on the money 

payter,
[ Tab from: http://www.guitartabs.cc/tabs/j/johnson_jack/symbols_in_my_driveway_tab.html ]
Comments