Johnson Jack - Symbol In My Driveway Chords & Tabs

 

Symbol In My Driveway Chords & Tabs

Johnson Jack Chords & Tabs

Version: 2 Type: Tab 0 ratings
1 star 2 stars 3 stars 4 stars 5 stars
comments

Symbol In My Driveway Tab

   
This is just a guess, and it's my first tab
Sup B-Faz
[ Tab from: http://www.guitartabs.cc/tabs/j/johnson_jack/symbol_in_my_driveway_tab_ver_2.html ]
E------------------------------------
B------------------------------------
G------------------------------------
D--2-2-4-2--2-2-4-2--x-x-x-x--x-x-x-x
A--0-0-0-0--0-0-0-2--2-2-4-2--2-2-4-2
E--x-x-x-x--x-x-x-x--0-0-0-0--0-0-0-0
Then at some point i think it does this
E-------------------------------------
B-------------------------------------
G--2-2-4-2--2-2-4-2-------------------
D--0-0-0-0--0-0-0-0-------------------
A--x-x-x-x--x-x-x-x-------------------
E-------------------------------------
Comments