Johnson Jack - Posters Chords & Tabs

 

Posters Chords & Tabs

Johnson Jack Chords & Tabs

Version: 1 Type: Tab 0 ratings
1 star 2 stars 3 stars 4 stars 5 stars
comments

Posters Tab

Jack Johnson - Posters

This is the song Posters off Jack's last album Brushfire Fairytales. This is a
great song and I just figured out how to play it thanks to a lot of help from my
man Dave in Normal, Ill. It may not be 100% right, but it sounds pretty good and
it'll get you started.

INTRO (repeat 2x)

e------------------------------------------------------------------------------
B------------------------------------------------------------------------------
G------------------------------------------------------------------------------
D--------9h11p9---------x----------------14--13--11--9-------------------------
A----------------11-----x------------------------------------------------------
E--0-----------------7--x--7--7h9--9-----12--11--9---7-------------------------


e------------------------------------------------------------------------------
B------------------------------------------------------------------------------
G----------------------------------------5--5--5-/-7--7--7---------------------
D--------9h11p9---------x----------------5--5--5-/-7--7--7---------------------
A----------------11-----x----------------x--x--x-/-x--x--x---------------------
E--0-----------------7--x--7--7h9--9-----3--3--3-/-5--5--5---------------------
                                         strum and slide


VERSE PATTERN #1
[ Tab from: http://www.guitartabs.cc/tabs/j/johnson_jack/posters_tab.html ]
e------------------------------------------------------------------------------
B------------------------------------------------------------------------------
G-----9------9------9-------9--------------------------------------------------
D-----x------9------11------9--------------------------------------------------
A-----7------x------x-------x--------------------------------------------------
E--0--0---7--7---9--9----7--7--------------------------------------------------
   looking at himself....


VERSE PATTERN #2

e-----7----------7------------------------------------------------------------------
B-----9----------7------------------------------------------------------------------
G-----9----------8------------------------------------------------------------------
D-----9----------9------------------------------------------------------------------
A--7--7-------9--9------------------------------------------------------------------
E-----7----------7------------------------------------------------------------------
   he gets his courage...


VERSE PATTERN #3

e-----7--------5--------4-------2--------------------------------------------------
B-----9--------7--------6-------4--------------------------------------------------
G-----9--------7--------6-------4--------------------------------------------------
D-----9--------7--------6-------4--------------------------------------------------
A--7--7-----5--5-----4--4----2--2--------------------------------------------------
E-----7--------5--------4-------2--------------------------------------------------
   and if it ain't this...


Those are the 4 basic patterns Jack uses in the song. I don't really have the timing
down here, so listen to the cd to get that and the strumming pattern. Jack switches up quite
a bit between the different patterns, especially towards the end of the song, so
listen for it and you'll get it. If you want to contact me, email zazill@hotmail.com.
Peace.
Comments