Johnson Jack - Bubbletoes Chords & Tabs

 

Bubbletoes Chords & Tabs

Johnson Jack Chords & Tabs

Version: 2 Type: Tab 0 ratings
1 star 2 stars 3 stars 4 stars 5 stars
comments

Bubbletoes Tab

#----------------------------------PLEASE NOTE---------------------------------#
#This file is the author's own work and represents their interpretation of the #
#song. You may only use this file for private study, scholarship, or research. #
#------------------------------------------------------------------------------##
Jack Johnson
BUBBLETOES

TABBER: Unknown

guitar chords
G   3 5 5 4 3 3
C   X 3 5 5 5 3
D   X 5 7 7 7 5


INTRO part 1
--------------------------------
--------------------------------
--------------------------------
-7--x-7--------9--x-9-----------
-5--x-5-7--x-7-7--x-7-10--x-10--
--------5--x-5---------8--x--8--

INTRO part 2
-----------------------------
-----------------------------
-----------------------------
-----------------------------
-5--x-5-7--x-7-8--x-8-7--x-7-
-3--x-3-3--x-3-3--x-3-3--x-3-
[ Tab from: http://www.guitartabs.cc/tabs/j/johnson_jack/bubbletoes_tab_ver_2.html ]
  (play intro part 1 [x2])
 
  (play INTRO part 2)

  (play INTRO part 1 [x2])
 
  (play INTRO part 2)

  (play INTRO part 1 [x2])
  

  (that cool run thing...)
  ------------------------------------------
  ------------------------------------------
  ------------------------------------------
  ------------------------------------------
  -----2-3-5-------------7-7-7-7-7/9-7-5-3--
  -3-3-------3~--x-x-x-x--------------------

  (from here on it's just the three chords G, C and D in the same rythym
   except for he pauses during the jellyfish verse's)

------------------------------------------------------------------------

kurt233smith said (September 16, 2005, 10:08 am):


Good Job!!!

-----------------------------------------------------------------------
asphatindie said (November 30, 2005, 8:05 pm):


sounds just like it if you add jack's slide-guitar thing......
Comments