Johnson Jack - Bubbletoes Chords & Tabs

 

Bubbletoes Chords & Tabs

Johnson Jack Chords & Tabs

Version: 1 Type: Tab 3 ratings
1 star 2 stars 3 stars 4 stars 5 stars
comments

Bubbletoes Tab

This is my favourite Jack Johnson song
Its really easy to play, and its a good one to sing along to with
your mates around or at a beach (ocean beach, whangarei ...maybe).  
Ive been looking for a tab for this for ages,but I never found 
any.  So I thought Id just try for myself.
This is pretty accurate.

e---------------------------------------------------------------
b---------------------------------------------------------------
g---------------------------------------------------------------
d-------7---------------------------------------------9---------
a-------5----------------------5----------------------7---------
e------------------------------7--------------------------------

its as simple as somethig that nobody knows and her eyes are as 

e---------------------------------------------------------------
b---------------------------------------------------------------
g---------------------------------------------------------------
d---------------------------------------------------------------
a-----------10--------------------------------------------------
e------------8--------------------------------------------------

deep as her bubbly toes.........................
[ Tab from: http://www.guitartabs.cc/tabs/j/johnson_jack/bubbletoes_tab.html ]
e------------------------------------------------------------------
b------------------------------------------------------------------
g--4-44-444-44--5-55/7-7-77----------------------------------------
d--5-55-555-55--5-55/7-7-77----------------------------------------
a--5-55-555-55--3-33/5-5-55----------------------------------------
e--3-33-333-33-----------------------------------------------------

.....was some.    (repeat throughout whole song)

e------------------------------------------------------------------
b------------------------------------------------------------------
g------------------------------------------------------------------
d------------------------------------------------------------------
a----2-3-5-----------7-7-7-7-9-7-5-3-------------------------------
e--33-----3-------3------------------------------------------------

this is the little break in the song.

e-------------------------------------------------------------------
b-------------------------------------------------------------------
g--4-44-444-44--5-55/7-7-77-----------------------------------------
d--5-55-555-55--5-55/7-7-77-----------------------------------------
a--5-55-555-55--3-33/5-5-55-----------------------------------------
e--3-33-333-33------------------------------------------------------

she la da da da dada    la dada da da da da

enjoy.
Comments