Johnson Jack - Bubble Toes Chords & Tabs

 

Bubble Toes Chords & Tabs

Johnson Jack Chords & Tabs

Version: 1 Type: Tab 1 rating
1 star 2 stars 3 stars 4 stars 5 stars
comments

Bubble Toes Tab

   
Jack Johnson
Bubble Toes
Submitted By: Desi-Louise


Riff 1:
e--------------------------------------
B--------------------0---0-------------
G----2---2-------------------0---0-----
D----0---0---2---2---2---2-------------
A------------0---0-----------3---3-----
E--------------------------------------
[ Tab from: http://www.guitartabs.cc/tabs/j/johnson_jack/bubble_toes_tab.html ]
Riff 2:
e--------------------------------------
B--------------------------------------
G--------------------------------------
D---0----0----2----2----3----3----2----
A--------------------------------------
E---3----3----3----3----3----3----3----

Chords:
G  C  D7

Riff 1 (2x)
Riff 2 (1x)
Riff 1 (2x)
Riff 2 (1x)
Riff 1 (2x)
Chord Progression
Comments