Johnson Jack - Better Together Chords & Tabs

 

Better Together Chords & Tabs

Johnson Jack Chords & Tabs

Version: 3 Type: Tab 2 ratings
1 star 2 stars 3 stars 4 stars 5 stars
comments

Better Together Tab

   
Title: BETTER TOGETHER
Band: JACK JOHNSON
Album: IN BETWEEN DREAMS
Transcribed By: TYLER HEILMAN

This is a revision of the first one. There are a couple changes.

INTRO

E|------------------------------------------------------------------------------------------------------------------------------------------
B|-----------------------------------------------------------------------------------------------------------------------------------------
G|----------12\10---------10\7---------7\5----------5---------5/7--------7/10--------10/12----------12\10-----------10---------------------
D|- 10/12------------10------------7-----------5----------5-----------7------------10-------------12---------------10---------------------
A|-----------------------------------------------------------------------------------------------------------------------------------------
E|------------------------------------------------------------------------------------------------------------------------------------------

VERSE

     F              F/E            Dm          C                Bb           Bb/A           G            C
E|----------------------------------------------------------------------------------------------3-------------8--------------------------
B|-------------10--------10------------6------------5----------------6--------------------------3-------------8--------------------------
G|-------------10--------10------------5------------5----------------7-----------7--------------4-------------9--------------------------
D|-------10--------------10------------7------------5----------------8-----------8--------------5------------10---------------------------
A|---8--------------7--------------5-----------3---------------------8-----------8--------------------------------------------------------
E|---------------------------------------------------------------6------------5-------------3------------8--------------------------------

CHORUS
[ Tab from: http://www.guitartabs.cc/tabs/j/johnson_jack/better_together_tab_ver_3.html ]
      Bb                                 C
E|-----------6--------6------6----------------8----------8------8------------------------------------------------------------------------
B|-----------6--------6------6----------------8----------8------8-------------------------------------------------------------------------
G|-----------7--------7------7----------------9----------9------9------------------------------(REPEAT 4 TIMES)---------------------------
D|-----------8--------8------8----------------10--------10-----10-------------------------------------------------------------------------
A|-----------------------------------------------------------------------------------------------------------------------------------------
E|----6---------------6------------------8---------------8-------------------------------------------------------------------------------

BRIDGE

          Gm                               C
E|-------------3-------3------3-----------------8--------8-------8---------------------------------------------------------------------
B|-------------3-------3------3-----------------8--------8-------8---------------------------------------------------------------------
G|-------------3-------3------3-----------------9--------9-------9-----------(REPEAT 4 TIMES)-------------------------------------------
D|-------------5-------5------5----------------10-------10------10----------------------------------------------------------------------
A|---------------------------------------------------------------------------------------------------------------------------------------
E|--------3------------3-------------------8-------------8------------------------------------------------------------------------------

BRIDGE CONTINUED

      Bb                                 C
E|-----------6--------6------6----------------8----------8------8------------------------------------------------------------------------
B|-----------6--------6------6----------------8----------8------8------------------------------------------------------------------------
G|-----------7--------7------7----------------9----------9------9------------------------------(REPEAT 4 TIMES)---------------------------
D|-----------8--------8------8----------------10--------10-----10-------------------------------------------------------------------------
A|-----------------------------------------------------------------------------------------------------------------------------------------
E|----6---------------6------------------8---------------8-----------------------------------------------------------------------------
Comments