Johnny Thunders - Pirate Love Chords & Tabs

 

Pirate Love Chords & Tabs

Johnny Thunders Chords & Tabs

Version: 1 Type: Tab 0 ratings
1 star 2 stars 3 stars 4 stars 5 stars
comments

Pirate Love Tab

Pirate Love
Written by Johnny Thunders

Intro and verses
e--2---4---2---5---------2----4-----2----3------------------------------------|
B--2---4---2---5---------2----4-----2----3------------------------------------|
G--3---5---3---6---------3----5-----3----4------------------------------------|
D--4---6---4---7---------4----6-----4----5------------------------------------|
A--4---6---4---7---------4----6-----4----5------------------------------------|
E--2---4---2---5---------2----4-----2----3--------X many----------------------|
[ Tab from: http://www.guitartabs.cc/tabs/j/johnny_thunders/pirate_love_tab.html ]
Chorus
e--7---7----5---5----2-------------------------------7-------------6-----5-----2---|
B--7---7----5---5----2-------------------------------7-------------6-----5-----2---|
G--8---8----6---6----3-------------------------------8-------------7-----6-----3---|
D--9---9----7---7----4-------------------------------9-------------8-----7-----4---|
A--9---9----7---7----4-------------------------------9-------------8-----7-----4---|
E--7---7----5---5----2-----------X a few, then---------7-------------6-----5-----2-|

One or both of these may be in the wrong key, but you work it out. I'm not your mother.
Comments