Johnny Smith - Shenandoah Chords & Tabs

 

Shenandoah Chords & Tabs

Johnny Smith Chords & Tabs

Version: 1 Type: Tab 0 ratings
1 star 2 stars 3 stars 4 stars 5 stars
comments

Shenandoah Tab

   
Shenandoah Johnny Smith Version.
Tab by William Betts. Blake White showed me how to play this. It is in Drop D tuning.
[ Tab from: http://www.guitartabs.cc/tabs/j/johnny_smith/shenandoah_tab.html ]
E|---2-------------------10-9-7---5-7-5-2-5---|
B|---3-3-3-5-7-7-12--10---7-7-0---5-5-5-3-----|
G|-2-2-----4-6-8-11---9---7-7-0---6-6-6-2-----|
D|---4-----5-7-9-12--11---9-7-5---7-7-7-4-----|
A|---0--------------0-----------0-------0-----|
D|---0----------------------------------0-----|
crd: D    Em   G Bm7     Bm A7  F#m F#m
 - :       F#m Bm    ?     Bm7 A  F#m9  D

  -2-5-7-7-7--2-5-2--------------------5-------|
  -2---7---0----2-2-5-3--------------7-5-3-5-7-|
  -2---7---0----2-2-0-4--2-7-7-7---7---6-0---7-|
  -4---9---5----4-4-4-4----4-5-4-7-7---X-0---7-|
  -0------------0-0-2-2----0-0-0-7-5---4-2---0-|
  ---------------------------------------------|
  F#m     G3  F#m+9  Bm          Am    ? G   D
      Bm        F#m                D5
                 Bm11

  ---------|
  -3-5-3---|
  ---6-4---|
  ---7-5---|
  ---0-0---|
  ---------|
     A G
Comments