Johnny Rzeznik - Always Know Where You Are Chords & Tabs

 

Always Know Where You Are Chords & Tabs

Johnny Rzeznik Chords & Tabs

Version: 1 Type: Tab 0 ratings
1 star 2 stars 3 stars 4 stars 5 stars
comments

Always Know Where You Are Tab

John Rzeznik
"Always Know Where You Are"
From Disney's "Treasure Planet" Movie
Tabbed by Snapple McJonsellberry
alvaneeckhout_182@hotmail.com

BB Mak also does this song.  There's no difference excpet for the vocals.

Guitar 1-Acoustic Guitar
Guitar 2-Electric Guitar
Guitar 3-Electric Guitar
Guitar 4-Electric Guitar with slide

Intro-Acoustic for one line, then electric
e|---3----3----3----3---------0---0---0---0----|
B|---x----5----6----5---------1---x---1---x----|
G|---5----x----5----x---------x---5---x---5----|
D|---5----5----3----5---------3---5---3---5----|(2x)First Time-Guitar 1
A|---3----3---------3------2--3---5---3---5----|Second Time-Enter Guit.2 & 3
E|-------------------------0--1---3---1---3----|  
                                   Guitar 3- Play 5th Chords or power chords
 
e|---3----3----3----3---------0---0------0-----|
B|---x----5----6----5---------1---x------0-----|
G|---5----x----5----x---------x---5------4-----|
D|---5----5----3----5---------3---5---2--4-----|
A|---3----3---------3------2--3---5---0--2-----|
E|-------------------------0--1---3------------|

  
Verse
  "It's good to see the sun and feel this place..."
Guitar 2
e|------------------------------------|
B|------------------------------------|
G|---5\-------5\-------5\-------2-----| (2x)
D|---5\---5---5\---3---5\---5---2-----|
A|---3\---5---3\---3---3\---5---0-----|
E|--------3--------1--------3---------|
[ Tab from: http://www.guitartabs.cc/tabs/j/johnny_rzeznik/always_know_where_you_are_tab.html ]
Guitar 3-Play combination of these notes when guitar 2 plays last chord (the A chord)
e|--------------|
B|---5----------|
G|---5----------|
D|---5----------|
A|--------------|
E|--------------|
 
Pre-Chorus 
  "Somehow the world has changed..."
Guitar 2-use slight dist. and play quietly or don't play at all and let
Guitar 3 do it's job.  Guitar 1, however can play chords if it chooses to. 
e|----------------------------------------|
B|----------------------------------------|
G|----------------------------------------|
D|---2-----------5---5---2----------------|
A|---0---2---3---3---2---0-----2---3--5---|
E|-------0---1-----------------0---1--3---|

  Guitar 3-play around with these notes
e|---------------------------------------------|
B|------12--------13-------------12-------13---|
G|-12-12----12-12-----12--12--12----12-12------|
D|---------------------------------------------|
A|---------------------------------------------|
E|---------------------------------------------|

Chorus
Verse
Pre-chorus
Chorus

"Now, it's all so clear and I believe that everything's been opened up to me."-
Play Pre-Chorus

Guitar 3-Similar to Pre-chorus but add a few extra notes.  Echo, Delay, or some
shit like that may be used.
e|--------------------------------------|
B|--12--13--12---12--13--17--15---------|
G|--12--12--12---12--12--12--12---------|
D|--------------------------------------|
A|--------------------------------------|
E|--------------------------------------|

e|-------------------------------17--19--20--|
B|--12--13--12---12--13--15--17--------------|
G|--12--12--12---12--12----------------------|
D|-------------------------------------------|
A|-------------------------------------------|
E|-------------------------------------------|

Guitar 4 with slide.  Listen to song to determine when to play.
e|------------|
B|--10\\8-----|
G|------------|
D|------------|
A|------------|
E|------------|

End with the chorus.  Any questions or correction, E-mail me I guess.

"It's mind over matter gentlemen, if you don't mind it doesn't matter."
_         -U.S. Navy SEALS Instructor
Comments