Johnny Mandel - Suicide Is Painless Chords & Tabs

 

Suicide Is Painless Chords & Tabs

Johnny Mandel Chords & Tabs

Version: 1 Type: Tab 0 ratings
1 star 2 stars 3 stars 4 stars 5 stars
comments

Suicide Is Painless Tab

   
This is the beautiful theme song to M*A*S*H.
Slap a capo on the 2nd fret and you're good to go.

INTRO

   Am
e|------------------------
B|-----1-0--------1-0-1-0-
G|-----2-2--------2-0-2-0-
D|---2------2---2---------
A|-0----------0-----------
E|------------------------


VERSE

        Dm7           G7
Through Early morning fog I see
C              Am7
Visions of the things to be
    Dm7              G7
The pains that are withheld for me
C             Am          A7
I realize and I can see


CHORUS

     Dm7        G7
That Suicide is Painless
C                Am7
It brings on many changes
    Dm7            G                     Am
And I can  take or leave if it I please


VERSE
[ Tab from: http://www.guitartabs.cc/tabs/j/johnny_mandel/suicide_is_painless_tab.html ]
The game of life is hard to play
I'm gonna to lose it anyway
The losing card I'll someday lay
So this is all I have to say


CHORUS

Suicide is Painless
It brings on many changes
And I can  take or leave if it I please

VERSE

The sword of time will pierce our skin
It doesn't hurt when it begins
But as it works it's way on in
The pain grows stronger watch it grin


CHORUS


VERSE

A brave man once requested me
To answer questions that are key
Is it to be or not to be
And I replied "Oh why ask me"


CHORUS

Suicide is Painless
It brings on many changes
And I can  take or leave it if I please


ENDING

    Dm7     Dm7    G          G
And you can do the same thing if you please

   Am                                   Am
e|--------------------------------------0-
B|-----1-0--------1-0-------1-0-1-0-----1-
G|-----2-2--------2-2-------2-0-2-0-----2-
D|---2------2---2------2---2--------2---2-
A|-0----------0----------0--------------0-
E|----------------------------------------
Comments