Johnny Eat The Salmon Alive - Hand To Be A Hook Chords & Tabs

 

Hand To Be A Hook Chords & Tabs

Johnny Eat The Salmon Alive Chords & Tabs

Version: 1 Type: Bass Tab 0 ratings
1 star 2 stars 3 stars 4 stars 5 stars
comments

Hand To Be A Hook Bass Tab

Hand to be a Hook
                   (Don't Need Sleep)


G------------------------------------------------------------------------------------
D----------------------------------------------5-------------------------------------
A--4-4-4-4-4-4-----------------4-4-4-4-4-4-----------------4-4-4-4-4-4---------------
D----------------5-5-5-5-5-5-5-----------------5-5-5-5-5-5---------------5-5-5-5-5-5-

G------------------------18------------------------
D--------------------------------------------------     (Riff 1)
A----------------------------17-17-17-17-17-17-
D--16-16-16-16-16-16---------------------------


G---------------------------------------------------------------------
D---------------------------------------------------------------------
A--------------------------------------------------------------------- (Riff 2)
D--9-9-9-8-8-8-7-7-7--0-0-0-0-0-0-0-0----9-9-9-8-8-8-7-0-1-2-3-2-1-0

[ Tab from: http://www.guitartabs.cc/tabs/j/johnny_eat_the_salmon_alive/hand_to_be_a_hook_btab.html ]
G----3------3-------4-----4----
D------2------2-------3-----3--        (Riff 3)
A--1------1-----1-2----2-----2
D-------------------------------




*It is in drop D tuning and is played with a pick

Here are the lyrics:

I want my life back
I want my bookbag
I want my want back
I want my back to back
I am hanging upside down
I am the face that's on your frown
I am your ceiling fan
I am not a man

I want, I need, I sleep, I breathe

We don't need sleep
Pointless, says the fox
I don't want to be
Sister's in the shop
Hello Margerie
Oh, how're you doing?
Soda or ice tea?
Already brewing

We make no sense
We can't take hints
We want to call back
We are allowed consumers
We read the Bible
We contradict our titles
I am no certain
Hand to be a hook

I want, I need, I sleep, I breathe

We don't need sleep
Pointless, says the fox
I don't want to be
Sister's in the shop
Hello Margerie
Oh, how're you doing?
Soda or ice tea?


Lyrics written and performed by Trey Scanlon
Guitar lines written and performed by Trey Scanlon
Bass lines written and performed by Daniel Scanlon
Drum beats written and performed by Michael P. Coughlin

Johnny Eat The Salmon Alive
2004
Comments