Johnny Eastwood Logo - Fallout Chords & Tabs

 

Fallout Chords & Tabs

Johnny Eastwood Logo Chords & Tabs

Version: 1 Type: Bass Tab 0 ratings
1 star 2 stars 3 stars 4 stars 5 stars
comments

Fallout Bass Tab

    Normal Tuning
[ Tab from: http://www.guitartabs.cc/tabs/j/johnny_eastwood_logo/fallout_btab.html ]
Chorus
----------------------------------------------------------------------
----------------------------------------------------------------------
----------------------------------------------------------------------
----------------------------------------------------------------------
----------------------------------------------------------------------
-------2-2-2-2-2-2-2-2-0-0-0-0-5-5-5-5--------------------------------
Play(8x)

----------------------------------------------------------------------
----------------------------------------------------------------------
----------------------------------------------------------------------
----------------------2-2-2-2-2-2-2-2---------------------------------
------2-2-2-2-2-2-2-2-----------------0-0-0-0-0-0-0-0-----------------
------------------------------------------------------0-0-0-0-0-0-0-0-
verse play 8x  

solo play 4x

Comments