Johnny Clegger And Savuka - Warsaw 1943 I Never Betrayed The Revolution Chords & Tabs

 

Warsaw 1943 I Never Betrayed The Revolution Chords & Tabs

Johnny Clegger And Savuka Chords & Tabs

Version: 1 Type: Bass Tab 0 ratings
1 star 2 stars 3 stars 4 stars 5 stars
comments

Warsaw 1943 I Never Betrayed The Revolution Bass Tab

-Warsaw 1943 (I Never Betrayed The Revolution)
-Johnny Clegg & Savuka
-Crazy, Cruel, Beautiful World
-1989

Juan.savuka@hotmail.com, any doubts, requests or commentaries...

Line 1
G|-------------------------------------------------------------------------------------|
D|----------------------------------------------------------------------------7-----5--|
A|--5-------5-5-5-x-3-3--5-------5---5-----3-5-------5-5-5-x-3-3--5-------5-5---5-3----|
E|-----5-5------------------5-5----5---5-3------5-5------------------5-5---------------|
[ Tab from: http://www.guitartabs.cc/tabs/j/johnny_clegger_and_savuka/warsaw_1943_i_never_betrayed_the_revolution_btab.html ]
Line 2
G|-------------------------------------------------------------------------------------|
D|----------------------------------------------------------------------------9-----7--|
A|--7-------7-7-7-x-5-5--7-------7---7-----5-7-------7-7-7-x-5-5--7-------7-7---7-5----|
E|-----7-7------------------7-7----7---7-5------7-7------------------7-7---------------|

Chorus
G|------------------------------------------------------------------|
D|-------------------------------------------------7-------------7--|
A|--5--5-5----------7--7-7------------------------------------------|
E|----------5--5-5----------7--7-7--5-5-5--5--5-5-----7--7-7-5------|

Bridge
G|--------------------------------------------------|
D|-----------------------------------------------7--|
A|--5--5------7--7----------------------------------|
E|-------5---------7----5--5--5-5----7--7/3--5------|
Comments