Johnny Cash - Sam Hall Chords & Tabs

 

Sam Hall Chords & Tabs

Johnny Cash Chords & Tabs

Version: 1 Type: Tab 0 ratings
1 star 2 stars 3 stars 4 stars 5 stars
comments

Sam Hall Tab

   
-------------------------------------------------------------------------------
Sam Hall                                                By Johnny CAsh
-------------------------------------------------------------------------------
Tabbed by: Squiz
Email:Squiznee@hotmail.com

Sam Hall
by Johnny CAsh

Tuning:EADGBE

Intro 
  C                                            Well, my name it is Sam Hall...           
e|--0---0---0---0---0---0---0---0---0---0-----0---0---0---0---0---0---0---0--|
B|--1---1---1---1---1---1---1---1---1---1-----1---1---1---1---1---1---1---1--|
G|--0---0---0---0---0---0---0---0---0---0-----0---0---0---0---0---0---0---0--|
D|--2---2---2---2---2---2---2---2---2---2-----2---2---2---2---2---2---2---2--|
A|3-------3-------3-------3-------3---------3-------3-------3-------3--------|
E|----3-------3-------3-------3-------3---------3-------3-------3-------3----|
                          G               C                F
e|--0---0---0---0---0-------3---3--3---3----0---0---0---1----1---1---1---1---|
B|--1---1---1---1---1-------3---3--3---3----1---1---1---1----1---1---1---1---|
G|--0---0---0---0---0-------0---0--0---0----0---0---0---0----2---3---3---3---|
D|--2---2---2---2---2-------0---0--0---0----2---2---2---2--3-3---3-3-3---3---|
A|3-------3-------3---3-2-----2------2----2-------2------------3-------3-----|
E|----3-------3-----------3-------3-----------3-------3----------------------|
  C       G       C
e|--0-------0-------0---0---0------------------------------------------------|
B|--1-------1-------1---1---1------------------------------------------------|
G|--0-------0-------0---0---0----etc....-------------------------------------|
D|--2-------2-------2---2---2------------------------------------------------|
A|3---3-2-------2-3-------3--------------------------------------------------|
E|--------3---3-------3------------------------------------------------------|

Well, my name it is Sam Hall, Sam Hall.
Yes, my name it is Sam Hall; it is Sam Hall.
My name it is Sam Hall an' I hate you, one and all.
An' I hate you, one and all:
Damn your eyes.
[ Tab from: http://www.guitartabs.cc/tabs/j/johnny_cash/sam_hall_tab.html ]
I killed a man, they said; so they said.
I killed a man, they said; so they said.
I killed a man, they said an' I smashed in his head.
An' I left him layin' dead,
Damn his eyes.

But a-swingin', I must go; I must go.
A-swingin', I must go; I must go.
A-swingin', I must go while you critters down below,
Yell up: "Sam, I told you so."
Well, damn your eyes!

Solo:

e|---------------------------------------------------------------------------|
B|---------------------------------------------------------------------------|
G|------------------------------------------------------------5-5-5-5-5-5----|
D|----------------------------------------5-5-5-7-5---5-5-5-5------------7b--|
A|----2-3--5b-5b--3-3-------3-3--3-3--5/7-----------7------------------------|
E|3-5-----------------5-3-5--------------------------------------------------|

e|---------------------------------------------------------------------------|
B|---------------------------------------------------------------------------|
G|5-5-5-5-5-5--5---------------------------------5---------------------------|
D|-----------7---7-5----------7b--5h7-5----5h7-5-----------------------------|
A|-------------------5b-5b-3-------------3-----------------------------------|
E|---------------------------------------------------------------------------|
                                                         
I saw Molly in the crowd; in the crowd.
I saw Molly in the crowd; in the crowd.
I saw Molly in the crowd an' I hollered, right out loud:
"Hey there Molly, ain't you proud?
"Damn your eyes."

Then the Sherriff, he came to; he came to.
Ah, yeah, the Sherriff, he came to; he came to.
The Sherriff, he come to an he said: "Sam, how are you?"
An I said: "Well, Sherriff, how are you,
"Damn your eyes."

My name is Samuel, Samuel.
My name is Samuel, Samuel.
My name is Samuel, an' I'll see you all in hell.
An' I'll see you all in hell,
Damn your eyes.

Yoku dekimashta Natsuko San!! Domo Arigato!! xox

| /  slide up
| \  slide down
| h  hammer-on
| p  pull-off
| ~  vibrato
| +  harmonic
| x  Mute note
===============================================================================
Comments